ISO-10303-21;
HEADER;
FILE_DESCRIPTION (( 'STEP AP214' ),
    '1' );
FILE_NAME ('DW-AD-502-M8.STEP',
    '2018-04-11T10:46:06',
    ( '' ),
    ( '' ),
    'SwSTEP 2.0',
    'SolidWorks 2017',
    '' );
FILE_SCHEMA (( 'AUTOMOTIVE_DESIGN' ));
ENDSEC;

DATA;
#1 = EDGE_LOOP ( 'NONE', ( #101 ) ) ;
#2 = DIRECTION ( 'NONE',  ( -0.0000000000000000000, -1.000000000000000000, -0.0000000000000000000 ) ) ;
#3 = DIRECTION ( 'NONE',  ( 0.0000000000000000000, 1.000000000000000000, 0.0000000000000000000 ) ) ;
#4 = DIRECTION ( 'NONE',  ( 0.0000000000000000000, 0.0000000000000000000, -1.000000000000000000 ) ) ;
#5 = CARTESIAN_POINT ( 'NONE',  ( 0.0000000000000000000, 0.0000000000000000000, 0.0000000000000000000 ) ) ;
#6 = VERTEX_POINT ( 'NONE', #92 ) ;
#7 = DIRECTION ( 'NONE',  ( 0.0000000000000000000, 0.0000000000000000000, 1.000000000000000000 ) ) ;
#8 = SURFACE_STYLE_USAGE ( .BOTH. , #214 ) ;
#9 = AXIS2_PLACEMENT_3D ( 'NONE', #22, #211, #25 ) ;
#10 = FACE_BOUND ( 'NONE', #162, .T. ) ;
#11 = DIRECTION ( 'NONE',  ( 0.0000000000000000000, 1.000000000000000000, 0.0000000000000000000 ) ) ;
#12 = EDGE_LOOP ( 'NONE', ( #98 ) ) ;
#13 = AXIS2_PLACEMENT_3D ( 'NONE', #242, #187, #41 ) ;
#14 = PRODUCT_DEFINITION_CONTEXT ( 'detailed design', #71, 'design' ) ;
#15 = FACE_OUTER_BOUND ( 'NONE', #232, .T. ) ;
#16 = ADVANCED_FACE ( 'NONE', ( #221 ), #161, .F. ) ;
#17 = ADVANCED_FACE ( 'NONE', ( #10, #27 ), #79, .T. ) ;
#18 = ORIENTED_EDGE ( 'NONE', *, *, #90, .F. ) ;
#19 = AXIS2_PLACEMENT_3D ( 'NONE', #145, #31, #182 ) ;
#20 =( NAMED_UNIT ( * ) SI_UNIT ( $, .STERADIAN. ) SOLID_ANGLE_UNIT ( ) );
#21 = PRESENTATION_STYLE_ASSIGNMENT (( #8 ) ) ;
#22 = CARTESIAN_POINT ( 'NONE',  ( 0.0000000000000000000, 0.01969999999999999900, 0.0000000000000000000 ) ) ;
#23 = AXIS2_PLACEMENT_3D ( 'NONE', #96, #156, #231 ) ;
#24 = CIRCLE ( 'NONE', #58, 0.1279500000000000400 ) ;
#25 = DIRECTION ( 'NONE',  ( 0.0000000000000000000, 0.0000000000000000000, 1.000000000000000000 ) ) ;
#26 = DIRECTION ( 'NONE',  ( -0.0000000000000000000, -1.000000000000000000, -0.0000000000000000000 ) ) ;
#27 = FACE_OUTER_BOUND ( 'NONE', #245, .T. ) ;
#28 = UNCERTAINTY_MEASURE_WITH_UNIT (LENGTH_MEASURE( 1.000000000000000100E-005 ), #57, 'distance_accuracy_value', 'NONE');
#29 = ORIENTED_EDGE ( 'NONE', *, *, #120, .F. ) ;
#30 = CLOSED_SHELL ( 'NONE', ( #168, #37, #240, #186, #105, #16, #17, #125, #85, #55 ) ) ;
#31 = DIRECTION ( 'NONE',  ( 0.0000000000000000000, 1.000000000000000000, 0.0000000000000000000 ) ) ;
#32 = FACE_OUTER_BOUND ( 'NONE', #52, .T. ) ;
#33 = DIMENSIONAL_EXPONENTS ( 1.000000000000000000, 0.0000000000000000000, 0.0000000000000000000, 0.0000000000000000000, 0.0000000000000000000, 0.0000000000000000000, 0.0000000000000000000 ) ;
#34 = DIRECTION ( 'NONE',  ( -0.0000000000000000000, -1.000000000000000000, -0.0000000000000000000 ) ) ;
#35 = FACE_OUTER_BOUND ( 'NONE', #70, .T. ) ;
#36 = ORIENTED_EDGE ( 'NONE', *, *, #237, .T. ) ;
#37 = ADVANCED_FACE ( 'NONE', ( #216, #106 ), #122, .T. ) ;
#38 =( LENGTH_UNIT ( ) NAMED_UNIT ( * ) SI_UNIT ( $, .METRE. ) );
#39 =( CONVERSION_BASED_UNIT ( 'INCH', #146 ) LENGTH_UNIT ( ) NAMED_UNIT ( #87 ) );
#40 = VERTEX_POINT ( 'NONE', #172 ) ;
#41 = DIRECTION ( 'NONE',  ( 1.000000000000000000, 0.0000000000000000000, 0.0000000000000000000 ) ) ;
#42 = PLANE ( 'NONE',  #112 ) ;
#43 = DIRECTION ( 'NONE',  ( -0.0000000000000000000, -1.000000000000000000, -0.0000000000000000000 ) ) ;
#44 = AXIS2_PLACEMENT_3D ( 'NONE', #209, #116, #76 ) ;
#45 = DIRECTION ( 'NONE',  ( 0.0000000000000000000, 1.000000000000000000, 0.0000000000000000000 ) ) ;
#46 = DIRECTION ( 'NONE',  ( -0.0000000000000000000, -1.000000000000000000, -0.0000000000000000000 ) ) ;
#47 = FACE_OUTER_BOUND ( 'NONE', #131, .T. ) ;
#48 = DIRECTION ( 'NONE',  ( 0.0000000000000000000, -0.0000000000000000000, 1.000000000000000000 ) ) ;
#49 = EDGE_LOOP ( 'NONE', ( #91 ) ) ;
#50 = DIRECTION ( 'NONE',  ( 0.0000000000000000000, 1.000000000000000000, 0.0000000000000000000 ) ) ;
#51 = COLOUR_RGB ( '',0.7921568627450980000, 0.8196078431372548800, 0.9333333333333333500 ) ;
#52 = EDGE_LOOP ( 'NONE', ( #236 ) ) ;
#53 = PRODUCT_DEFINITION_SHAPE ( 'NONE', 'NONE',  #164 ) ;
#54 = CARTESIAN_POINT ( 'NONE',  ( 0.0000000000000000000, 0.009699999999999996800, 0.0000000000000000000 ) ) ;
#55 = ADVANCED_FACE ( 'NONE', ( #219, #47 ), #42, .F. ) ;
#56 =( GEOMETRIC_REPRESENTATION_CONTEXT ( 3 ) GLOBAL_UNCERTAINTY_ASSIGNED_CONTEXT ( ( #166 ) ) GLOBAL_UNIT_ASSIGNED_CONTEXT ( ( #84, #144, #89 ) ) REPRESENTATION_CONTEXT ( 'NONE', 'WORKASPACE' ) );
#57 =( CONVERSION_BASED_UNIT ( 'INCH', #244 ) LENGTH_UNIT ( ) NAMED_UNIT ( #103 ) );
#58 = AXIS2_PLACEMENT_3D ( 'NONE', #5, #45, #7 ) ;
#59 = CARTESIAN_POINT ( 'NONE',  ( 0.0000000000000000000, 0.01969999999999999900, 0.1179500000000000400 ) ) ;
#60 = DIRECTION ( 'NONE',  ( 0.0000000000000000000, 0.0000000000000000000, -1.000000000000000000 ) ) ;
#61 = CARTESIAN_POINT ( 'NONE',  ( 0.0000000000000000000, -1.771653543305475400, 0.0000000000000000000 ) ) ;
#62 = CIRCLE ( 'NONE', #23, 0.09845000000000001000 ) ;
#63 = ORIENTED_EDGE ( 'NONE', *, *, #120, .T. ) ;
#64 = DIRECTION ( 'NONE',  ( 0.0000000000000000000, 0.0000000000000000000, -1.000000000000000000 ) ) ;
#65 = FACE_OUTER_BOUND ( 'NONE', #12, .T. ) ;
#66 = CIRCLE ( 'NONE', #9, 0.1179500000000000400 ) ;
#67 = AXIS2_PLACEMENT_3D ( 'NONE', #210, #3, #97 ) ;
#68 = DIRECTION ( 'NONE',  ( 0.0000000000000000000, 0.0000000000000000000, -1.000000000000000000 ) ) ;
#69 = CYLINDRICAL_SURFACE ( 'NONE', #220, 0.1574803149582750800 ) ;
#70 = EDGE_LOOP ( 'NONE', ( #206 ) ) ;
#71 = APPLICATION_CONTEXT ( 'automotive_design' ) ;
#72 = DIRECTION ( 'NONE',  ( 0.0000000000000000000, 0.0000000000000000000, 1.000000000000000000 ) ) ;
#73 = FACE_BOUND ( 'NONE', #213, .T. ) ;
#74 = APPLICATION_PROTOCOL_DEFINITION ( 'draft international standard', 'automotive_design', 1998, #71 ) ;
#75 = CIRCLE ( 'NONE', #93, 0.1370230219575699600 ) ;
#76 = DIRECTION ( 'NONE',  ( 0.0000000000000000000, 0.0000000000000000000, -1.000000000000000000 ) ) ;
#77 = DIRECTION ( 'NONE',  ( 0.0000000000000000000, 0.0000000000000000000, -1.000000000000000000 ) ) ;
#78 = AXIS2_PLACEMENT_3D ( 'NONE', #233, #135, #60 ) ;
#79 = CONICAL_SURFACE ( 'NONE', #197, 0.1574803149606299200, 1.047197551261559700 ) ;
#80 = MECHANICAL_DESIGN_GEOMETRIC_PRESENTATION_REPRESENTATION (  '', ( #128 ), #56 ) ;
#81 = VERTEX_POINT ( 'NONE', #203 ) ;
#82 = EDGE_LOOP ( 'NONE', ( #121 ) ) ;
#83 = CARTESIAN_POINT ( 'NONE',  ( 0.0000000000000000000, -1.771653543305475400, 0.1370230219575699600 ) ) ;
#84 =( CONVERSION_BASED_UNIT ( 'INCH', #181 ) LENGTH_UNIT ( ) NAMED_UNIT ( #33 ) );
#85 = ADVANCED_FACE ( 'NONE', ( #184, #73 ), #194, .T. ) ;
#86 = EDGE_CURVE ( 'NONE', #142, #142, #66, .T. ) ;
#87 = DIMENSIONAL_EXPONENTS ( 1.000000000000000000, 0.0000000000000000000, 0.0000000000000000000, 0.0000000000000000000, 0.0000000000000000000, 0.0000000000000000000, 0.0000000000000000000 ) ;
#88 = VERTEX_POINT ( 'NONE', #114 ) ;
#89 =( NAMED_UNIT ( * ) SI_UNIT ( $, .STERADIAN. ) SOLID_ANGLE_UNIT ( ) );
#90 = EDGE_CURVE ( 'NONE', #88, #88, #62, .T. ) ;
#91 = ORIENTED_EDGE ( 'NONE', *, *, #165, .T. ) ;
#92 = CARTESIAN_POINT ( 'NONE',  ( 0.0000000000000000000, 0.009699999999999996800, 0.1279500000000000400 ) ) ;
#93 = AXIS2_PLACEMENT_3D ( 'NONE', #249, #134, #227 ) ;
#94 =( GEOMETRIC_REPRESENTATION_CONTEXT ( 3 ) GLOBAL_UNCERTAINTY_ASSIGNED_CONTEXT ( ( #28 ) ) GLOBAL_UNIT_ASSIGNED_CONTEXT ( ( #57, #188, #20 ) ) REPRESENTATION_CONTEXT ( 'NONE', 'WORKASPACE' ) );
#95 = CARTESIAN_POINT ( 'NONE',  ( 0.01574803149606299200, 1.031500000000000100, 0.0000000000000000000 ) ) ;
#96 = CARTESIAN_POINT ( 'NONE',  ( 0.01574803149606299200, 0.01969999999999992900, 0.0000000000000000000 ) ) ;
#97 = DIRECTION ( 'NONE',  ( 0.0000000000000000000, -0.0000000000000000000, 1.000000000000000000 ) ) ;
#98 = ORIENTED_EDGE ( 'NONE', *, *, #218, .F. ) ;
#99 = AXIS2_PLACEMENT_3D ( 'NONE', #147, #34, #68 ) ;
#100 = FILL_AREA_STYLE_COLOUR ( '', #113 ) ;
#101 = ORIENTED_EDGE ( 'NONE', *, *, #199, .T. ) ;
#102 = EDGE_LOOP ( 'NONE', ( #170 ) ) ;
#103 = DIMENSIONAL_EXPONENTS ( 1.000000000000000000, 0.0000000000000000000, 0.0000000000000000000, 0.0000000000000000000, 0.0000000000000000000, 0.0000000000000000000, 0.0000000000000000000 ) ;
#104 = AXIS2_PLACEMENT_3D ( 'NONE', #54, #132, #72 ) ;
#105 = ADVANCED_FACE ( 'NONE', ( #180 ), #154, .T. ) ;
#106 = FACE_OUTER_BOUND ( 'NONE', #195, .T. ) ;
#107 = ORIENTED_EDGE ( 'NONE', *, *, #218, .T. ) ;
#108 = SURFACE_SIDE_STYLE ('',( #130 ) ) ;
#109 = PRODUCT_DEFINITION_FORMATION_WITH_SPECIFIED_SOURCE ( 'ANY', '', #235, .NOT_KNOWN. ) ;
#110 =( NAMED_UNIT ( * ) PLANE_ANGLE_UNIT ( ) SI_UNIT ( $, .RADIAN. ) );
#111 = FILL_AREA_STYLE_COLOUR ( '', #51 ) ;
#112 = AXIS2_PLACEMENT_3D ( 'NONE', #133, #192, #137 ) ;
#113 = COLOUR_RGB ( '',0.7921568627450980000, 0.8196078431372548800, 0.9333333333333333500 ) ;
#114 = CARTESIAN_POINT ( 'NONE',  ( 0.01574803149606299200, 0.01969999999999992900, 0.09845000000000001000 ) ) ;
#115 = DIRECTION ( 'NONE',  ( 0.0000000000000000000, 0.0000000000000000000, 1.000000000000000000 ) ) ;
#116 = DIRECTION ( 'NONE',  ( -0.0000000000000000000, -1.000000000000000000, -0.0000000000000000000 ) ) ;
#117 = DIRECTION ( 'NONE',  ( 0.0000000000000000000, 0.0000000000000000000, -1.000000000000000000 ) ) ;
#118 = AXIS2_PLACEMENT_3D ( 'NONE', #173, #2, #117 ) ;
#119 = PRESENTATION_LAYER_ASSIGNMENT (  '', '', ( #234 ) ) ;
#120 = EDGE_CURVE ( 'NONE', #248, #248, #124, .T. ) ;
#121 = ORIENTED_EDGE ( 'NONE', *, *, #165, .F. ) ;
#122 = PLANE ( 'NONE',  #19 ) ;
#123 = PRODUCT_RELATED_PRODUCT_CATEGORY ( 'part', '', ( #235 ) ) ;
#124 = CIRCLE ( 'NONE', #160, 0.09845000000000001000 ) ;
#125 = ADVANCED_FACE ( 'NONE', ( #65, #32 ), #69, .T. ) ;
#126 = TOROIDAL_SURFACE ( 'NONE', #104, 0.1179500000000000400, 0.01000000000000000000 ) ;
#127 = SURFACE_STYLE_USAGE ( .BOTH. , #108 ) ;
#128 = STYLED_ITEM ( 'NONE', ( #21 ), #207 ) ;
#129 =( NAMED_UNIT ( * ) SI_UNIT ( $, .STERADIAN. ) SOLID_ANGLE_UNIT ( ) );
#130 = SURFACE_STYLE_FILL_AREA ( #224 ) ;
#131 = EDGE_LOOP ( 'NONE', ( #215 ) ) ;
#132 = DIRECTION ( 'NONE',  ( 0.0000000000000000000, 1.000000000000000000, 0.0000000000000000000 ) ) ;
#133 = CARTESIAN_POINT ( 'NONE',  ( 0.0000000000000000000, -1.118966005333004800E-012, 0.0000000000000000000 ) ) ;
#134 = DIRECTION ( 'NONE',  ( -0.0000000000000000000, -1.000000000000000000, -0.0000000000000000000 ) ) ;
#135 = DIRECTION ( 'NONE',  ( -0.0000000000000000000, -1.000000000000000000, -0.0000000000000000000 ) ) ;
#136 = CIRCLE ( 'NONE', #99, 0.1574803149606299200 ) ;
#137 = DIRECTION ( 'NONE',  ( 0.0000000000000000000, 0.0000000000000000000, -1.000000000000000000 ) ) ;
#138 = DIRECTION ( 'NONE',  ( -0.0000000000000000000, -1.000000000000000000, -0.0000000000000000000 ) ) ;
#139 = FILL_AREA_STYLE ('',( #100 ) ) ;
#140 = VERTEX_POINT ( 'NONE', #247 ) ;
#141 = EDGE_LOOP ( 'NONE', ( #18 ) ) ;
#142 = VERTEX_POINT ( 'NONE', #59 ) ;
#143 = FACE_OUTER_BOUND ( 'NONE', #49, .T. ) ;
#144 =( NAMED_UNIT ( * ) PLANE_ANGLE_UNIT ( ) SI_UNIT ( $, .RADIAN. ) );
#145 = CARTESIAN_POINT ( 'NONE',  ( 0.0000000000000000000, 0.01969999999999999900, 0.0000000000000000000 ) ) ;
#146 = LENGTH_MEASURE_WITH_UNIT ( LENGTH_MEASURE( 0.02539999999999999900 ), #169 );
#147 = CARTESIAN_POINT ( 'NONE',  ( 0.0000000000000000000, -1.759842519685039600, 0.0000000000000000000 ) ) ;
#148 = FACE_OUTER_BOUND ( 'NONE', #163, .T. ) ;
#149 = AXIS2_PLACEMENT_3D ( 'NONE', #83, #11, #48 ) ;
#150 =( GEOMETRIC_REPRESENTATION_CONTEXT ( 3 ) GLOBAL_UNCERTAINTY_ASSIGNED_CONTEXT ( ( #185 ) ) GLOBAL_UNIT_ASSIGNED_CONTEXT ( ( #39, #110, #129 ) ) REPRESENTATION_CONTEXT ( 'NONE', 'WORKASPACE' ) );
#151 = VERTEX_POINT ( 'NONE', #208 ) ;
#152 = ORIENTED_EDGE ( 'NONE', *, *, #86, .F. ) ;
#153 = EDGE_CURVE ( 'NONE', #40, #40, #241, .T. ) ;
#154 = PLANE ( 'NONE',  #67 ) ;
#155 = EDGE_LOOP ( 'NONE', ( #158 ) ) ;
#156 = DIRECTION ( 'NONE',  ( -0.0000000000000000000, -1.000000000000000000, -0.0000000000000000000 ) ) ;
#157 = CARTESIAN_POINT ( 'NONE',  ( 0.0000000000000000000, -1.771653543305475400, 0.0000000000000000000 ) ) ;
#158 = ORIENTED_EDGE ( 'NONE', *, *, #153, .F. ) ;
#159 = EDGE_LOOP ( 'NONE', ( #212 ) ) ;
#160 = AXIS2_PLACEMENT_3D ( 'NONE', #95, #228, #115 ) ;
#161 = PLANE ( 'NONE',  #149 ) ;
#162 = EDGE_LOOP ( 'NONE', ( #201 ) ) ;
#163 = EDGE_LOOP ( 'NONE', ( #29 ) ) ;
#164 = PRODUCT_DEFINITION ( 'UNKNOWN', '', #109, #14 ) ;
#165 = EDGE_CURVE ( 'NONE', #6, #6, #205, .T. ) ;
#166 = UNCERTAINTY_MEASURE_WITH_UNIT (LENGTH_MEASURE( 1.000000000000000100E-005 ), #84, 'distance_accuracy_value', 'NONE');
#167 = FACE_OUTER_BOUND ( 'NONE', #141, .T. ) ;
#168 = ADVANCED_FACE ( 'NONE', ( #143, #35 ), #191, .T. ) ;
#169 =( LENGTH_UNIT ( ) NAMED_UNIT ( * ) SI_UNIT ( $, .METRE. ) );
#170 = ORIENTED_EDGE ( 'NONE', *, *, #90, .T. ) ;
#171 = CARTESIAN_POINT ( 'NONE',  ( 0.01574803149606299200, 1.031500000000000100, 0.09845000000000001000 ) ) ;
#172 = CARTESIAN_POINT ( 'NONE',  ( 0.0000000000000000000, -0.01181102362204321200, -0.1574803149559202700 ) ) ;
#173 = CARTESIAN_POINT ( 'NONE',  ( 0.0000000000000000000, 0.01969999999999999900, 0.0000000000000000000 ) ) ;
#174 = CARTESIAN_POINT ( 'NONE',  ( 0.0000000000000000000, 0.009699999999999996800, 0.0000000000000000000 ) ) ;
#175 = AXIS2_PLACEMENT_3D ( 'NONE', #157, #46, #64 ) ;
#176 = DIRECTION ( 'NONE',  ( 0.0000000000000000000, 0.0000000000000000000, 1.000000000000000000 ) ) ;
#177 = SHAPE_DEFINITION_REPRESENTATION ( #53, #226 ) ;
#178 = ORIENTED_EDGE ( 'NONE', *, *, #86, .T. ) ;
#179 = PRESENTATION_LAYER_ASSIGNMENT (  '', '', ( #128 ) ) ;
#180 = FACE_OUTER_BOUND ( 'NONE', #222, .T. ) ;
#181 = LENGTH_MEASURE_WITH_UNIT ( LENGTH_MEASURE( 0.02539999999999999900 ), #198 );
#182 = DIRECTION ( 'NONE',  ( 0.0000000000000000000, -0.0000000000000000000, 1.000000000000000000 ) ) ;
#183 = EDGE_CURVE ( 'NONE', #151, #151, #24, .T. ) ;
#184 = FACE_OUTER_BOUND ( 'NONE', #155, .T. ) ;
#185 = UNCERTAINTY_MEASURE_WITH_UNIT (LENGTH_MEASURE( 1.000000000000000100E-005 ), #39, 'distance_accuracy_value', 'NONE');
#186 = ADVANCED_FACE ( 'NONE', ( #167, #148 ), #202, .T. ) ;
#187 = DIRECTION ( 'NONE',  ( 0.0000000000000000000, 0.0000000000000000000, 1.000000000000000000 ) ) ;
#188 =( NAMED_UNIT ( * ) PLANE_ANGLE_UNIT ( ) SI_UNIT ( $, .RADIAN. ) );
#189 = PRODUCT_CONTEXT ( 'NONE', #204, 'mechanical' ) ;
#190 = CARTESIAN_POINT ( 'NONE',  ( 0.0000000000000000000, -2.237929876409764400E-012, -0.1370230219575699600 ) ) ;
#191 = CYLINDRICAL_SURFACE ( 'NONE', #118, 0.1279500000000000400 ) ;
#192 = DIRECTION ( 'NONE',  ( 0.0000000000000000000, -1.000000000000000000, -0.0000000000000000000 ) ) ;
#193 = PRESENTATION_STYLE_ASSIGNMENT (( #127 ) ) ;
#194 = CONICAL_SURFACE ( 'NONE', #223, 0.1370230219575699600, 1.047197551184987400 ) ;
#195 = EDGE_LOOP ( 'NONE', ( #178 ) ) ;
#196 = CARTESIAN_POINT ( 'NONE',  ( 0.0000000000000000000, -1.759842519685039600, 0.0000000000000000000 ) ) ;
#197 = AXIS2_PLACEMENT_3D ( 'NONE', #196, #50, #217 ) ;
#198 =( LENGTH_UNIT ( ) NAMED_UNIT ( * ) SI_UNIT ( $, .METRE. ) );
#199 = EDGE_CURVE ( 'NONE', #81, #81, #238, .T. ) ;
#200 = SURFACE_STYLE_FILL_AREA ( #139 ) ;
#201 = ORIENTED_EDGE ( 'NONE', *, *, #199, .F. ) ;
#202 = CYLINDRICAL_SURFACE ( 'NONE', #78, 0.09845000000000001000 ) ;
#203 = CARTESIAN_POINT ( 'NONE',  ( 0.0000000000000000000, -1.771653543305475400, -0.1370230219575699600 ) ) ;
#204 = APPLICATION_CONTEXT ( 'automotive_design' ) ;
#205 = CIRCLE ( 'NONE', #239, 0.1279500000000000400 ) ;
#206 = ORIENTED_EDGE ( 'NONE', *, *, #183, .T. ) ;
#207 = MANIFOLD_SOLID_BREP ( 'Revolve1', #30 ) ;
#208 = CARTESIAN_POINT ( 'NONE',  ( 0.0000000000000000000, 0.0000000000000000000, 0.1279500000000000400 ) ) ;
#209 = CARTESIAN_POINT ( 'NONE',  ( 0.0000000000000000000, -0.01181102362204321200, 0.0000000000000000000 ) ) ;
#210 = CARTESIAN_POINT ( 'NONE',  ( 0.01574803149606299200, 1.031500000000000100, 0.0000000000000000000 ) ) ;
#211 = DIRECTION ( 'NONE',  ( 0.0000000000000000000, 1.000000000000000000, 0.0000000000000000000 ) ) ;
#212 = ORIENTED_EDGE ( 'NONE', *, *, #183, .F. ) ;
#213 = EDGE_LOOP ( 'NONE', ( #36 ) ) ;
#214 = SURFACE_SIDE_STYLE ('',( #200 ) ) ;
#215 = ORIENTED_EDGE ( 'NONE', *, *, #237, .F. ) ;
#216 = FACE_BOUND ( 'NONE', #102, .T. ) ;
#217 = DIRECTION ( 'NONE',  ( 0.0000000000000000000, 0.0000000000000000000, 1.000000000000000000 ) ) ;
#218 = EDGE_CURVE ( 'NONE', #140, #140, #136, .T. ) ;
#219 = FACE_BOUND ( 'NONE', #159, .T. ) ;
#220 = AXIS2_PLACEMENT_3D ( 'NONE', #61, #138, #77 ) ;
#221 = FACE_OUTER_BOUND ( 'NONE', #1, .T. ) ;
#222 = EDGE_LOOP ( 'NONE', ( #63 ) ) ;
#223 = AXIS2_PLACEMENT_3D ( 'NONE', #229, #26, #4 ) ;
#224 = FILL_AREA_STYLE ('',( #111 ) ) ;
#225 = FACE_OUTER_BOUND ( 'NONE', #82, .T. ) ;
#226 = ADVANCED_BREP_SHAPE_REPRESENTATION ( 'DW-AD-502-M8', ( #207, #13 ), #94 ) ;
#227 = DIRECTION ( 'NONE',  ( 0.0000000000000000000, 0.0000000000000000000, -1.000000000000000000 ) ) ;
#228 = DIRECTION ( 'NONE',  ( 0.0000000000000000000, 1.000000000000000000, 0.0000000000000000000 ) ) ;
#229 = CARTESIAN_POINT ( 'NONE',  ( 0.0000000000000000000, -2.237929876409764400E-012, 0.0000000000000000000 ) ) ;
#230 = VERTEX_POINT ( 'NONE', #190 ) ;
#231 = DIRECTION ( 'NONE',  ( 0.0000000000000000000, 0.0000000000000000000, 1.000000000000000000 ) ) ;
#232 = EDGE_LOOP ( 'NONE', ( #152 ) ) ;
#233 = CARTESIAN_POINT ( 'NONE',  ( 0.01574803149606299200, 1.031500000000000100, 0.0000000000000000000 ) ) ;
#234 = STYLED_ITEM ( 'NONE', ( #193 ), #226 ) ;
#235 = PRODUCT ( 'DW-AD-502-M8', 'DW-AD-502-M8', '', ( #189 ) ) ;
#236 = ORIENTED_EDGE ( 'NONE', *, *, #153, .T. ) ;
#237 = EDGE_CURVE ( 'NONE', #230, #230, #75, .T. ) ;
#238 = CIRCLE ( 'NONE', #175, 0.1370230219575699600 ) ;
#239 = AXIS2_PLACEMENT_3D ( 'NONE', #174, #43, #176 ) ;
#240 = ADVANCED_FACE ( 'NONE', ( #225, #15 ), #126, .T. ) ;
#241 = CIRCLE ( 'NONE', #44, 0.1574803149559202700 ) ;
#242 = CARTESIAN_POINT ( 'NONE',  ( 0.0000000000000000000, 0.0000000000000000000, 0.0000000000000000000 ) ) ;
#243 = MECHANICAL_DESIGN_GEOMETRIC_PRESENTATION_REPRESENTATION (  '', ( #234 ), #150 ) ;
#244 = LENGTH_MEASURE_WITH_UNIT ( LENGTH_MEASURE( 0.02539999999999999900 ), #38 );
#245 = EDGE_LOOP ( 'NONE', ( #107 ) ) ;
#246 = APPLICATION_PROTOCOL_DEFINITION ( 'draft international standard', 'automotive_design', 1998, #204 ) ;
#247 = CARTESIAN_POINT ( 'NONE',  ( 0.0000000000000000000, -1.759842519685039600, -0.1574803149606299200 ) ) ;
#248 = VERTEX_POINT ( 'NONE', #171 ) ;
#249 = CARTESIAN_POINT ( 'NONE',  ( 0.0000000000000000000, -2.237929876409764400E-012, 0.0000000000000000000 ) ) ;
ENDSEC;
END-ISO-10303-21;
