ISO-10303-21;
HEADER;
FILE_DESCRIPTION (( 'STEP AP214' ),
    '1' );
FILE_NAME ('DW-AD-504-M8.STEP',
    '2018-04-11T10:47:33',
    ( '' ),
    ( '' ),
    'SwSTEP 2.0',
    'SolidWorks 2017',
    '' );
FILE_SCHEMA (( 'AUTOMOTIVE_DESIGN' ));
ENDSEC;

DATA;
#1 = FACE_OUTER_BOUND ( 'NONE', #41, .T. ) ;
#2 = DIMENSIONAL_EXPONENTS ( 1.000000000000000000, 0.0000000000000000000, 0.0000000000000000000, 0.0000000000000000000, 0.0000000000000000000, 0.0000000000000000000, 0.0000000000000000000 ) ;
#3 = EDGE_LOOP ( 'NONE', ( #71 ) ) ;
#4 = EDGE_CURVE ( 'NONE', #85, #85, #125, .T. ) ;
#5 = PRODUCT_DEFINITION_CONTEXT ( 'detailed design', #199, 'design' ) ;
#6 = CARTESIAN_POINT ( 'NONE',  ( 0.0000000000000000000, -1.118966005333004800E-012, 0.0000000000000000000 ) ) ;
#7 = DIRECTION ( 'NONE',  ( 0.0000000000000000000, -1.000000000000000000, -0.0000000000000000000 ) ) ;
#8 = EDGE_CURVE ( 'NONE', #93, #93, #213, .T. ) ;
#9 = FACE_OUTER_BOUND ( 'NONE', #162, .T. ) ;
#10 =( LENGTH_UNIT ( ) NAMED_UNIT ( * ) SI_UNIT ( $, .METRE. ) );
#11 = DIRECTION ( 'NONE',  ( 0.0000000000000000000, 0.0000000000000000000, -1.000000000000000000 ) ) ;
#12 = STYLED_ITEM ( 'NONE', ( #87 ), #245 ) ;
#13 = DIRECTION ( 'NONE',  ( -0.0000000000000000000, -1.000000000000000000, -0.0000000000000000000 ) ) ;
#14 = DIRECTION ( 'NONE',  ( 0.0000000000000000000, 1.000000000000000000, 0.0000000000000000000 ) ) ;
#15 = EDGE_LOOP ( 'NONE', ( #201 ) ) ;
#16 = ADVANCED_FACE ( 'NONE', ( #180, #65 ), #82, .F. ) ;
#17 = EDGE_CURVE ( 'NONE', #145, #145, #111, .T. ) ;
#18 = ORIENTED_EDGE ( 'NONE', *, *, #4, .T. ) ;
#19 = ADVANCED_FACE ( 'NONE', ( #54, #217 ), #123, .T. ) ;
#20 = AXIS2_PLACEMENT_3D ( 'NONE', #83, #107, #84 ) ;
#21 = CIRCLE ( 'NONE', #39, 0.1279500000000000400 ) ;
#22 = ORIENTED_EDGE ( 'NONE', *, *, #4, .F. ) ;
#23 = PRESENTATION_LAYER_ASSIGNMENT (  '', '', ( #12 ) ) ;
#24 = CARTESIAN_POINT ( 'NONE',  ( 0.0000000000000000000, -2.237929876409764400E-012, 0.0000000000000000000 ) ) ;
#25 = FACE_OUTER_BOUND ( 'NONE', #216, .T. ) ;
#26 = CARTESIAN_POINT ( 'NONE',  ( 0.0000000000000000000, -1.771653543305475400, 0.0000000000000000000 ) ) ;
#27 = ORIENTED_EDGE ( 'NONE', *, *, #8, .F. ) ;
#28 =( LENGTH_UNIT ( ) NAMED_UNIT ( * ) SI_UNIT ( $, .METRE. ) );
#29 = SURFACE_SIDE_STYLE ('',( #31 ) ) ;
#30 = CARTESIAN_POINT ( 'NONE',  ( 0.0000000000000000000, 0.0000000000000000000, 0.0000000000000000000 ) ) ;
#31 = SURFACE_STYLE_FILL_AREA ( #90 ) ;
#32 = PLANE ( 'NONE',  #122 ) ;
#33 =( CONVERSION_BASED_UNIT ( 'INCH', #178 ) LENGTH_UNIT ( ) NAMED_UNIT ( #73 ) );
#34 = APPLICATION_PROTOCOL_DEFINITION ( 'draft international standard', 'automotive_design', 1998, #199 ) ;
#35 = CIRCLE ( 'NONE', #120, 0.1179500000000000400 ) ;
#36 = ORIENTED_EDGE ( 'NONE', *, *, #99, .F. ) ;
#37 = MECHANICAL_DESIGN_GEOMETRIC_PRESENTATION_REPRESENTATION (  '', ( #231 ), #174 ) ;
#38 = FACE_OUTER_BOUND ( 'NONE', #61, .T. ) ;
#39 = AXIS2_PLACEMENT_3D ( 'NONE', #190, #129, #191 ) ;
#40 = SURFACE_STYLE_FILL_AREA ( #248 ) ;
#41 = EDGE_LOOP ( 'NONE', ( #97 ) ) ;
#42 = CARTESIAN_POINT ( 'NONE',  ( 0.0000000000000000000, -0.01181102362204321200, 0.0000000000000000000 ) ) ;
#43 = COLOUR_RGB ( '',0.7921568627450980000, 0.8196078431372548800, 0.9333333333333333500 ) ;
#44 = DIRECTION ( 'NONE',  ( 0.0000000000000000000, 0.0000000000000000000, 1.000000000000000000 ) ) ;
#45 = DIRECTION ( 'NONE',  ( 0.0000000000000000000, 0.0000000000000000000, 1.000000000000000000 ) ) ;
#46 = EDGE_CURVE ( 'NONE', #135, #135, #212, .T. ) ;
#47 = DIRECTION ( 'NONE',  ( 0.0000000000000000000, 1.000000000000000000, 0.0000000000000000000 ) ) ;
#48 = APPLICATION_PROTOCOL_DEFINITION ( 'draft international standard', 'automotive_design', 1998, #96 ) ;
#49 = CARTESIAN_POINT ( 'NONE',  ( 0.0000000000000000000, 0.01969999999999999900, 0.1179500000000000400 ) ) ;
#50 =( NAMED_UNIT ( * ) PLANE_ANGLE_UNIT ( ) SI_UNIT ( $, .RADIAN. ) );
#51 =( CONVERSION_BASED_UNIT ( 'INCH', #78 ) LENGTH_UNIT ( ) NAMED_UNIT ( #141 ) );
#52 = ADVANCED_FACE ( 'NONE', ( #9, #127 ), #143, .T. ) ;
#53 = ADVANCED_FACE ( 'NONE', ( #197, #38 ), #64, .T. ) ;
#54 = FACE_OUTER_BOUND ( 'NONE', #144, .T. ) ;
#55 = AXIS2_PLACEMENT_3D ( 'NONE', #113, #157, #176 ) ;
#56 = EDGE_LOOP ( 'NONE', ( #226 ) ) ;
#57 = AXIS2_PLACEMENT_3D ( 'NONE', #24, #192, #63 ) ;
#58 = EDGE_CURVE ( 'NONE', #79, #79, #35, .T. ) ;
#59 = AXIS2_PLACEMENT_3D ( 'NONE', #137, #66, #249 ) ;
#60 = EDGE_CURVE ( 'NONE', #234, #234, #164, .T. ) ;
#61 = EDGE_LOOP ( 'NONE', ( #18 ) ) ;
#62 = DIRECTION ( 'NONE',  ( 0.0000000000000000000, 0.0000000000000000000, 1.000000000000000000 ) ) ;
#63 = DIRECTION ( 'NONE',  ( 0.0000000000000000000, 0.0000000000000000000, -1.000000000000000000 ) ) ;
#64 = CYLINDRICAL_SURFACE ( 'NONE', #186, 0.1574803149582750800 ) ;
#65 = FACE_OUTER_BOUND ( 'NONE', #185, .T. ) ;
#66 = DIRECTION ( 'NONE',  ( -0.0000000000000000000, -1.000000000000000000, -0.0000000000000000000 ) ) ;
#67 = DIRECTION ( 'NONE',  ( 0.0000000000000000000, -0.0000000000000000000, 1.000000000000000000 ) ) ;
#68 =( LENGTH_UNIT ( ) NAMED_UNIT ( * ) SI_UNIT ( $, .METRE. ) );
#69 = DIRECTION ( 'NONE',  ( 1.000000000000000000, 0.0000000000000000000, 0.0000000000000000000 ) ) ;
#70 = FACE_OUTER_BOUND ( 'NONE', #3, .T. ) ;
#71 = ORIENTED_EDGE ( 'NONE', *, *, #8, .T. ) ;
#72 = ADVANCED_FACE ( 'NONE', ( #25, #80 ), #232, .T. ) ;
#73 = DIMENSIONAL_EXPONENTS ( 1.000000000000000000, 0.0000000000000000000, 0.0000000000000000000, 0.0000000000000000000, 0.0000000000000000000, 0.0000000000000000000, 0.0000000000000000000 ) ;
#74 = AXIS2_PLACEMENT_3D ( 'NONE', #218, #126, #44 ) ;
#75 = COLOUR_RGB ( '',0.7921568627450980000, 0.8196078431372548800, 0.9333333333333333500 ) ;
#76 = ORIENTED_EDGE ( 'NONE', *, *, #105, .T. ) ;
#77 = AXIS2_PLACEMENT_3D ( 'NONE', #128, #219, #45 ) ;
#78 = LENGTH_MEASURE_WITH_UNIT ( LENGTH_MEASURE( 0.02539999999999999900 ), #68 );
#79 = VERTEX_POINT ( 'NONE', #49 ) ;
#80 = FACE_OUTER_BOUND ( 'NONE', #101, .T. ) ;
#81 = ORIENTED_EDGE ( 'NONE', *, *, #60, .F. ) ;
#82 = PLANE ( 'NONE',  #203 ) ;
#83 = CARTESIAN_POINT ( 'NONE',  ( 0.0000000000000000000, -1.759842519685039600, 0.0000000000000000000 ) ) ;
#84 = DIRECTION ( 'NONE',  ( 0.0000000000000000000, 0.0000000000000000000, -1.000000000000000000 ) ) ;
#85 = VERTEX_POINT ( 'NONE', #196 ) ;
#86 = DIRECTION ( 'NONE',  ( -0.0000000000000000000, -1.000000000000000000, -0.0000000000000000000 ) ) ;
#87 = PRESENTATION_STYLE_ASSIGNMENT (( #153 ) ) ;
#88 = ORIENTED_EDGE ( 'NONE', *, *, #58, .F. ) ;
#89 = FILL_AREA_STYLE_COLOUR ( '', #43 ) ;
#90 = FILL_AREA_STYLE ('',( #89 ) ) ;
#91 = SURFACE_SIDE_STYLE ('',( #40 ) ) ;
#92 = AXIS2_PLACEMENT_3D ( 'NONE', #147, #86, #109 ) ;
#93 = VERTEX_POINT ( 'NONE', #198 ) ;
#94 = PLANE ( 'NONE',  #55 ) ;
#95 = EDGE_CURVE ( 'NONE', #188, #188, #183, .T. ) ;
#96 = APPLICATION_CONTEXT ( 'automotive_design' ) ;
#97 = ORIENTED_EDGE ( 'NONE', *, *, #17, .T. ) ;
#98 = AXIS2_PLACEMENT_3D ( 'NONE', #30, #134, #69 ) ;
#99 = EDGE_CURVE ( 'NONE', #182, #182, #21, .T. ) ;
#100 = ADVANCED_BREP_SHAPE_REPRESENTATION ( 'DW-AD-504-M8', ( #245, #98 ), #181 ) ;
#101 = EDGE_LOOP ( 'NONE', ( #88 ) ) ;
#102 = AXIS2_PLACEMENT_3D ( 'NONE', #117, #13, #11 ) ;
#103 = LENGTH_MEASURE_WITH_UNIT ( LENGTH_MEASURE( 0.02539999999999999900 ), #10 );
#104 = EDGE_LOOP ( 'NONE', ( #233 ) ) ;
#105 = EDGE_CURVE ( 'NONE', #215, #215, #110, .T. ) ;
#106 = EDGE_LOOP ( 'NONE', ( #193 ) ) ;
#107 = DIRECTION ( 'NONE',  ( -0.0000000000000000000, -1.000000000000000000, -0.0000000000000000000 ) ) ;
#108 = DIRECTION ( 'NONE',  ( 0.0000000000000000000, 0.0000000000000000000, -1.000000000000000000 ) ) ;
#109 = DIRECTION ( 'NONE',  ( 0.0000000000000000000, 0.0000000000000000000, 1.000000000000000000 ) ) ;
#110 = CIRCLE ( 'NONE', #59, 0.1370230219575699600 ) ;
#111 = CIRCLE ( 'NONE', #189, 0.09845000000000001000 ) ;
#112 = DIRECTION ( 'NONE',  ( 0.0000000000000000000, 1.000000000000000000, 0.0000000000000000000 ) ) ;
#113 = CARTESIAN_POINT ( 'NONE',  ( 0.0000000000000000000, 0.01969999999999999900, 0.0000000000000000000 ) ) ;
#114 = PRODUCT_DEFINITION_FORMATION_WITH_SPECIFIED_SOURCE ( 'ANY', '', #204, .NOT_KNOWN. ) ;
#115 = EDGE_LOOP ( 'NONE', ( #76 ) ) ;
#116 =( NAMED_UNIT ( * ) PLANE_ANGLE_UNIT ( ) SI_UNIT ( $, .RADIAN. ) );
#117 = CARTESIAN_POINT ( 'NONE',  ( 0.01574803149606299200, 1.031500000000000100, 0.0000000000000000000 ) ) ;
#118 = EDGE_LOOP ( 'NONE', ( #221 ) ) ;
#119 = ADVANCED_FACE ( 'NONE', ( #167, #70 ), #140, .T. ) ;
#120 = AXIS2_PLACEMENT_3D ( 'NONE', #170, #166, #149 ) ;
#121 = UNCERTAINTY_MEASURE_WITH_UNIT (LENGTH_MEASURE( 1.000000000000000100E-005 ), #51, 'distance_accuracy_value', 'NONE');
#122 = AXIS2_PLACEMENT_3D ( 'NONE', #151, #14, #154 ) ;
#123 = CONICAL_SURFACE ( 'NONE', #57, 0.1370230219575699600, 1.047197551184987400 ) ;
#124 = CLOSED_SHELL ( 'NONE', ( #52, #202, #72, #177, #158, #179, #119, #53, #19, #16 ) ) ;
#125 = CIRCLE ( 'NONE', #136, 0.1574803149559202700 ) ;
#126 = DIRECTION ( 'NONE',  ( 0.0000000000000000000, 1.000000000000000000, 0.0000000000000000000 ) ) ;
#127 = FACE_OUTER_BOUND ( 'NONE', #15, .T. ) ;
#128 = CARTESIAN_POINT ( 'NONE',  ( 0.0000000000000000000, 0.009699999999999996800, 0.0000000000000000000 ) ) ;
#129 = DIRECTION ( 'NONE',  ( -0.0000000000000000000, -1.000000000000000000, -0.0000000000000000000 ) ) ;
#130 = CYLINDRICAL_SURFACE ( 'NONE', #102, 0.09845000000000001000 ) ;
#131 = AXIS2_PLACEMENT_3D ( 'NONE', #241, #194, #169 ) ;
#132 = FILL_AREA_STYLE_COLOUR ( '', #75 ) ;
#133 = MECHANICAL_DESIGN_GEOMETRIC_PRESENTATION_REPRESENTATION (  '', ( #12 ), #146 ) ;
#134 = DIRECTION ( 'NONE',  ( 0.0000000000000000000, 0.0000000000000000000, 1.000000000000000000 ) ) ;
#135 = VERTEX_POINT ( 'NONE', #209 ) ;
#136 = AXIS2_PLACEMENT_3D ( 'NONE', #42, #187, #184 ) ;
#137 = CARTESIAN_POINT ( 'NONE',  ( 0.0000000000000000000, -1.771653543305475400, 0.0000000000000000000 ) ) ;
#138 = FACE_BOUND ( 'NONE', #104, .T. ) ;
#139 = ORIENTED_EDGE ( 'NONE', *, *, #99, .T. ) ;
#140 = CONICAL_SURFACE ( 'NONE', #243, 0.1574803149606299200, 1.047197551261559700 ) ;
#141 = DIMENSIONAL_EXPONENTS ( 1.000000000000000000, 0.0000000000000000000, 0.0000000000000000000, 0.0000000000000000000, 0.0000000000000000000, 0.0000000000000000000, 0.0000000000000000000 ) ;
#142 = UNCERTAINTY_MEASURE_WITH_UNIT (LENGTH_MEASURE( 1.000000000000000100E-005 ), #247, 'distance_accuracy_value', 'NONE');
#143 = CYLINDRICAL_SURFACE ( 'NONE', #161, 0.1279500000000000400 ) ;
#144 = EDGE_LOOP ( 'NONE', ( #22 ) ) ;
#145 = VERTEX_POINT ( 'NONE', #172 ) ;
#146 =( GEOMETRIC_REPRESENTATION_CONTEXT ( 3 ) GLOBAL_UNCERTAINTY_ASSIGNED_CONTEXT ( ( #155 ) ) GLOBAL_UNIT_ASSIGNED_CONTEXT ( ( #33, #116, #246 ) ) REPRESENTATION_CONTEXT ( 'NONE', 'WORKASPACE' ) );
#147 = CARTESIAN_POINT ( 'NONE',  ( 0.01574803149606299200, 0.01969999999999992900, 0.0000000000000000000 ) ) ;
#148 = CARTESIAN_POINT ( 'NONE',  ( 0.0000000000000000000, -1.759842519685039600, 0.0000000000000000000 ) ) ;
#149 = DIRECTION ( 'NONE',  ( 0.0000000000000000000, 0.0000000000000000000, 1.000000000000000000 ) ) ;
#150 = CARTESIAN_POINT ( 'NONE',  ( 0.0000000000000000000, 0.01969999999999999900, 0.0000000000000000000 ) ) ;
#151 = CARTESIAN_POINT ( 'NONE',  ( 0.01574803149606299200, 1.031500000000000100, 0.0000000000000000000 ) ) ;
#152 = PRESENTATION_LAYER_ASSIGNMENT (  '', '', ( #231 ) ) ;
#153 = SURFACE_STYLE_USAGE ( .BOTH. , #91 ) ;
#154 = DIRECTION ( 'NONE',  ( 0.0000000000000000000, -0.0000000000000000000, 1.000000000000000000 ) ) ;
#155 = UNCERTAINTY_MEASURE_WITH_UNIT (LENGTH_MEASURE( 1.000000000000000100E-005 ), #33, 'distance_accuracy_value', 'NONE');
#156 = PLANE ( 'NONE',  #238 ) ;
#157 = DIRECTION ( 'NONE',  ( 0.0000000000000000000, 1.000000000000000000, 0.0000000000000000000 ) ) ;
#158 = ADVANCED_FACE ( 'NONE', ( #1 ), #32, .T. ) ;
#159 = FACE_OUTER_BOUND ( 'NONE', #168, .T. ) ;
#160 = EDGE_LOOP ( 'NONE', ( #207 ) ) ;
#161 = AXIS2_PLACEMENT_3D ( 'NONE', #150, #222, #239 ) ;
#162 = EDGE_LOOP ( 'NONE', ( #139 ) ) ;
#163 = PRESENTATION_STYLE_ASSIGNMENT (( #227 ) ) ;
#164 = CIRCLE ( 'NONE', #131, 0.1370230219575699600 ) ;
#165 = ORIENTED_EDGE ( 'NONE', *, *, #46, .F. ) ;
#166 = DIRECTION ( 'NONE',  ( 0.0000000000000000000, 1.000000000000000000, 0.0000000000000000000 ) ) ;
#167 = FACE_BOUND ( 'NONE', #106, .T. ) ;
#168 = EDGE_LOOP ( 'NONE', ( #208 ) ) ;
#169 = DIRECTION ( 'NONE',  ( 0.0000000000000000000, 0.0000000000000000000, -1.000000000000000000 ) ) ;
#170 = CARTESIAN_POINT ( 'NONE',  ( 0.0000000000000000000, 0.01969999999999999900, 0.0000000000000000000 ) ) ;
#171 =( NAMED_UNIT ( * ) SI_UNIT ( $, .STERADIAN. ) SOLID_ANGLE_UNIT ( ) );
#172 = CARTESIAN_POINT ( 'NONE',  ( 0.01574803149606299200, 1.031500000000000100, 0.09845000000000001000 ) ) ;
#173 = CARTESIAN_POINT ( 'NONE',  ( 0.01574803149606299200, 0.01969999999999992900, 0.09845000000000001000 ) ) ;
#174 =( GEOMETRIC_REPRESENTATION_CONTEXT ( 3 ) GLOBAL_UNCERTAINTY_ASSIGNED_CONTEXT ( ( #121 ) ) GLOBAL_UNIT_ASSIGNED_CONTEXT ( ( #51, #229, #210 ) ) REPRESENTATION_CONTEXT ( 'NONE', 'WORKASPACE' ) );
#175 = SHAPE_DEFINITION_REPRESENTATION ( #214, #100 ) ;
#176 = DIRECTION ( 'NONE',  ( 0.0000000000000000000, -0.0000000000000000000, 1.000000000000000000 ) ) ;
#177 = ADVANCED_FACE ( 'NONE', ( #200, #220 ), #130, .T. ) ;
#178 = LENGTH_MEASURE_WITH_UNIT ( LENGTH_MEASURE( 0.02539999999999999900 ), #28 );
#179 = ADVANCED_FACE ( 'NONE', ( #236 ), #156, .F. ) ;
#180 = FACE_BOUND ( 'NONE', #242, .T. ) ;
#181 =( GEOMETRIC_REPRESENTATION_CONTEXT ( 3 ) GLOBAL_UNCERTAINTY_ASSIGNED_CONTEXT ( ( #142 ) ) GLOBAL_UNIT_ASSIGNED_CONTEXT ( ( #247, #50, #171 ) ) REPRESENTATION_CONTEXT ( 'NONE', 'WORKASPACE' ) );
#182 = VERTEX_POINT ( 'NONE', #230 ) ;
#183 = CIRCLE ( 'NONE', #92, 0.09845000000000001000 ) ;
#184 = DIRECTION ( 'NONE',  ( 0.0000000000000000000, 0.0000000000000000000, -1.000000000000000000 ) ) ;
#185 = EDGE_LOOP ( 'NONE', ( #81 ) ) ;
#186 = AXIS2_PLACEMENT_3D ( 'NONE', #26, #205, #223 ) ;
#187 = DIRECTION ( 'NONE',  ( -0.0000000000000000000, -1.000000000000000000, -0.0000000000000000000 ) ) ;
#188 = VERTEX_POINT ( 'NONE', #173 ) ;
#189 = AXIS2_PLACEMENT_3D ( 'NONE', #224, #112, #240 ) ;
#190 = CARTESIAN_POINT ( 'NONE',  ( 0.0000000000000000000, 0.009699999999999996800, 0.0000000000000000000 ) ) ;
#191 = DIRECTION ( 'NONE',  ( 0.0000000000000000000, 0.0000000000000000000, 1.000000000000000000 ) ) ;
#192 = DIRECTION ( 'NONE',  ( -0.0000000000000000000, -1.000000000000000000, -0.0000000000000000000 ) ) ;
#193 = ORIENTED_EDGE ( 'NONE', *, *, #105, .F. ) ;
#194 = DIRECTION ( 'NONE',  ( -0.0000000000000000000, -1.000000000000000000, -0.0000000000000000000 ) ) ;
#195 = PRODUCT_CONTEXT ( 'NONE', #96, 'mechanical' ) ;
#196 = CARTESIAN_POINT ( 'NONE',  ( 0.0000000000000000000, -0.01181102362204321200, -0.1574803149559202700 ) ) ;
#197 = FACE_OUTER_BOUND ( 'NONE', #237, .T. ) ;
#198 = CARTESIAN_POINT ( 'NONE',  ( 0.0000000000000000000, -1.759842519685039600, -0.1574803149606299200 ) ) ;
#199 = APPLICATION_CONTEXT ( 'automotive_design' ) ;
#200 = FACE_OUTER_BOUND ( 'NONE', #56, .T. ) ;
#201 = ORIENTED_EDGE ( 'NONE', *, *, #46, .T. ) ;
#202 = ADVANCED_FACE ( 'NONE', ( #138, #159 ), #94, .T. ) ;
#203 = AXIS2_PLACEMENT_3D ( 'NONE', #6, #7, #108 ) ;
#204 = PRODUCT ( 'DW-AD-504-M8', 'DW-AD-504-M8', '', ( #195 ) ) ;
#205 = DIRECTION ( 'NONE',  ( -0.0000000000000000000, -1.000000000000000000, -0.0000000000000000000 ) ) ;
#206 = PRODUCT_DEFINITION ( 'UNKNOWN', '', #114, #5 ) ;
#207 = ORIENTED_EDGE ( 'NONE', *, *, #60, .T. ) ;
#208 = ORIENTED_EDGE ( 'NONE', *, *, #58, .T. ) ;
#209 = CARTESIAN_POINT ( 'NONE',  ( 0.0000000000000000000, 0.0000000000000000000, 0.1279500000000000400 ) ) ;
#210 =( NAMED_UNIT ( * ) SI_UNIT ( $, .STERADIAN. ) SOLID_ANGLE_UNIT ( ) );
#211 = DIRECTION ( 'NONE',  ( 0.0000000000000000000, 1.000000000000000000, 0.0000000000000000000 ) ) ;
#212 = CIRCLE ( 'NONE', #74, 0.1279500000000000400 ) ;
#213 = CIRCLE ( 'NONE', #20, 0.1574803149606299200 ) ;
#214 = PRODUCT_DEFINITION_SHAPE ( 'NONE', 'NONE',  #206 ) ;
#215 = VERTEX_POINT ( 'NONE', #244 ) ;
#216 = EDGE_LOOP ( 'NONE', ( #36 ) ) ;
#217 = FACE_BOUND ( 'NONE', #160, .T. ) ;
#218 = CARTESIAN_POINT ( 'NONE',  ( 0.0000000000000000000, 0.0000000000000000000, 0.0000000000000000000 ) ) ;
#219 = DIRECTION ( 'NONE',  ( 0.0000000000000000000, 1.000000000000000000, 0.0000000000000000000 ) ) ;
#220 = FACE_OUTER_BOUND ( 'NONE', #118, .T. ) ;
#221 = ORIENTED_EDGE ( 'NONE', *, *, #17, .F. ) ;
#222 = DIRECTION ( 'NONE',  ( -0.0000000000000000000, -1.000000000000000000, -0.0000000000000000000 ) ) ;
#223 = DIRECTION ( 'NONE',  ( 0.0000000000000000000, 0.0000000000000000000, -1.000000000000000000 ) ) ;
#224 = CARTESIAN_POINT ( 'NONE',  ( 0.01574803149606299200, 1.031500000000000100, 0.0000000000000000000 ) ) ;
#225 = CARTESIAN_POINT ( 'NONE',  ( 0.0000000000000000000, -2.237929876409764400E-012, -0.1370230219575699600 ) ) ;
#226 = ORIENTED_EDGE ( 'NONE', *, *, #95, .F. ) ;
#227 = SURFACE_STYLE_USAGE ( .BOTH. , #29 ) ;
#228 = CARTESIAN_POINT ( 'NONE',  ( 0.0000000000000000000, -1.771653543305475400, 0.1370230219575699600 ) ) ;
#229 =( NAMED_UNIT ( * ) PLANE_ANGLE_UNIT ( ) SI_UNIT ( $, .RADIAN. ) );
#230 = CARTESIAN_POINT ( 'NONE',  ( 0.0000000000000000000, 0.009699999999999996800, 0.1279500000000000400 ) ) ;
#231 = STYLED_ITEM ( 'NONE', ( #163 ), #100 ) ;
#232 = TOROIDAL_SURFACE ( 'NONE', #77, 0.1179500000000000400, 0.01000000000000000000 ) ;
#233 = ORIENTED_EDGE ( 'NONE', *, *, #95, .T. ) ;
#234 = VERTEX_POINT ( 'NONE', #225 ) ;
#235 = PRODUCT_RELATED_PRODUCT_CATEGORY ( 'part', '', ( #204 ) ) ;
#236 = FACE_OUTER_BOUND ( 'NONE', #115, .T. ) ;
#237 = EDGE_LOOP ( 'NONE', ( #27 ) ) ;
#238 = AXIS2_PLACEMENT_3D ( 'NONE', #228, #211, #67 ) ;
#239 = DIRECTION ( 'NONE',  ( 0.0000000000000000000, 0.0000000000000000000, -1.000000000000000000 ) ) ;
#240 = DIRECTION ( 'NONE',  ( 0.0000000000000000000, 0.0000000000000000000, 1.000000000000000000 ) ) ;
#241 = CARTESIAN_POINT ( 'NONE',  ( 0.0000000000000000000, -2.237929876409764400E-012, 0.0000000000000000000 ) ) ;
#242 = EDGE_LOOP ( 'NONE', ( #165 ) ) ;
#243 = AXIS2_PLACEMENT_3D ( 'NONE', #148, #47, #62 ) ;
#244 = CARTESIAN_POINT ( 'NONE',  ( 0.0000000000000000000, -1.771653543305475400, -0.1370230219575699600 ) ) ;
#245 = MANIFOLD_SOLID_BREP ( 'Revolve1', #124 ) ;
#246 =( NAMED_UNIT ( * ) SI_UNIT ( $, .STERADIAN. ) SOLID_ANGLE_UNIT ( ) );
#247 =( CONVERSION_BASED_UNIT ( 'INCH', #103 ) LENGTH_UNIT ( ) NAMED_UNIT ( #2 ) );
#248 = FILL_AREA_STYLE ('',( #132 ) ) ;
#249 = DIRECTION ( 'NONE',  ( 0.0000000000000000000, 0.0000000000000000000, -1.000000000000000000 ) ) ;
ENDSEC;
END-ISO-10303-21;
