ISO-10303-21;
HEADER;
FILE_DESCRIPTION (( 'STEP AP214' ),
    '1' );
FILE_NAME ('DW-AD-711-M8.STEP',
    '2018-04-11T17:30:09',
    ( '' ),
    ( '' ),
    'SwSTEP 2.0',
    'SolidWorks 2017',
    '' );
FILE_SCHEMA (( 'AUTOMOTIVE_DESIGN' ));
ENDSEC;

DATA;
#1 = DIMENSIONAL_EXPONENTS ( 1.000000000000000000, 0.0000000000000000000, 0.0000000000000000000, 0.0000000000000000000, 0.0000000000000000000, 0.0000000000000000000, 0.0000000000000000000 ) ;
#2 = DIRECTION ( 'NONE',  ( 0.0000000000000000000, 0.0000000000000000000, -1.000000000000000000 ) ) ;
#3 = AXIS2_PLACEMENT_3D ( 'NONE', #80, #99, #44 ) ;
#4 = ADVANCED_FACE ( 'NONE', ( #224 ), #89, .T. ) ;
#5 =( NAMED_UNIT ( * ) PLANE_ANGLE_UNIT ( ) SI_UNIT ( $, .RADIAN. ) );
#6 = SURFACE_STYLE_USAGE ( .BOTH. , #27 ) ;
#7 = SURFACE_STYLE_FILL_AREA ( #197 ) ;
#8 = ORIENTED_EDGE ( 'NONE', *, *, #123, .F. ) ;
#9 = AXIS2_PLACEMENT_3D ( 'NONE', #71, #53, #200 ) ;
#10 = AXIS2_PLACEMENT_3D ( 'NONE', #143, #232, #69 ) ;
#11 = FACE_OUTER_BOUND ( 'NONE', #137, .T. ) ;
#12 = EDGE_LOOP ( 'NONE', ( #103 ) ) ;
#13 = DIRECTION ( 'NONE',  ( 0.0000000000000000000, 1.000000000000000000, -0.0000000000000000000 ) ) ;
#14 = AXIS2_PLACEMENT_3D ( 'NONE', #72, #92, #113 ) ;
#15 = VERTEX_POINT ( 'NONE', #206 ) ;
#16 = EDGE_LOOP ( 'NONE', ( #36 ) ) ;
#17 =( CONVERSION_BASED_UNIT ( 'INCH', #190 ) LENGTH_UNIT ( ) NAMED_UNIT ( #101 ) );
#18 = CARTESIAN_POINT ( 'NONE',  ( 0.0000000000000000000, -0.07874015748031496000, 0.0000000000000000000 ) ) ;
#19 = DIRECTION ( 'NONE',  ( -0.0000000000000000000, 1.000000000000000000, -0.0000000000000000000 ) ) ;
#20 = LENGTH_MEASURE_WITH_UNIT ( LENGTH_MEASURE( 0.02539999999999999900 ), #133 );
#21 = VERTEX_POINT ( 'NONE', #57 ) ;
#22 = PRODUCT_DEFINITION_SHAPE ( 'NONE', 'NONE',  #24 ) ;
#23 = DIRECTION ( 'NONE',  ( 0.0000000000000000000, 0.0000000000000000000, -1.000000000000000000 ) ) ;
#24 = PRODUCT_DEFINITION ( 'UNKNOWN', '', #202, #120 ) ;
#25 = PRODUCT_CONTEXT ( 'NONE', #97, 'mechanical' ) ;
#26 = EDGE_LOOP ( 'NONE', ( #139 ) ) ;
#27 = SURFACE_SIDE_STYLE ('',( #178 ) ) ;
#28 = PRESENTATION_LAYER_ASSIGNMENT (  '', '', ( #115 ) ) ;
#29 = FACE_BOUND ( 'NONE', #220, .T. ) ;
#30 = EDGE_LOOP ( 'NONE', ( #59 ) ) ;
#31 =( GEOMETRIC_REPRESENTATION_CONTEXT ( 3 ) GLOBAL_UNCERTAINTY_ASSIGNED_CONTEXT ( ( #233 ) ) GLOBAL_UNIT_ASSIGNED_CONTEXT ( ( #17, #68, #158 ) ) REPRESENTATION_CONTEXT ( 'NONE', 'WORKASPACE' ) );
#32 = UNCERTAINTY_MEASURE_WITH_UNIT (LENGTH_MEASURE( 1.000000000000000100E-005 ), #132, 'distance_accuracy_value', 'NONE');
#33 = CIRCLE ( 'NONE', #70, 0.1377952755917686300 ) ;
#34 = PRESENTATION_LAYER_ASSIGNMENT (  '', '', ( #228 ) ) ;
#35 = DIRECTION ( 'NONE',  ( 0.0000000000000000000, 0.0000000000000000000, 1.000000000000000000 ) ) ;
#36 = ORIENTED_EDGE ( 'NONE', *, *, #119, .F. ) ;
#37 = SURFACE_SIDE_STYLE ('',( #166 ) ) ;
#38 =( GEOMETRIC_REPRESENTATION_CONTEXT ( 3 ) GLOBAL_UNCERTAINTY_ASSIGNED_CONTEXT ( ( #39 ) ) GLOBAL_UNIT_ASSIGNED_CONTEXT ( ( #56, #148, #199 ) ) REPRESENTATION_CONTEXT ( 'NONE', 'WORKASPACE' ) );
#39 = UNCERTAINTY_MEASURE_WITH_UNIT (LENGTH_MEASURE( 1.000000000000000100E-005 ), #56, 'distance_accuracy_value', 'NONE');
#40 = DIRECTION ( 'NONE',  ( 0.0000000000000000000, -1.000000000000000000, 0.0000000000000000000 ) ) ;
#41 = SURFACE_SIDE_STYLE ('',( #7 ) ) ;
#42 = LENGTH_MEASURE_WITH_UNIT ( LENGTH_MEASURE( 0.02539999999999999900 ), #162 );
#43 = ORIENTED_EDGE ( 'NONE', *, *, #189, .F. ) ;
#44 = DIRECTION ( 'NONE',  ( 1.000000000000000000, 0.0000000000000000000, 0.0000000000000000000 ) ) ;
#45 = STYLED_ITEM ( 'NONE', ( #154 ), #104 ) ;
#46 = EDGE_LOOP ( 'NONE', ( #77 ) ) ;
#47 = FACE_OUTER_BOUND ( 'NONE', #183, .T. ) ;
#48 = AXIS2_PLACEMENT_3D ( 'NONE', #141, #73, #216 ) ;
#49 = FACE_BOUND ( 'NONE', #30, .T. ) ;
#50 = DIRECTION ( 'NONE',  ( 0.0000000000000000000, -1.000000000000000000, 0.0000000000000000000 ) ) ;
#51 = AXIS2_PLACEMENT_3D ( 'NONE', #128, #129, #23 ) ;
#52 = DIRECTION ( 'NONE',  ( 0.0000000000000000000, 0.0000000000000000000, 1.000000000000000000 ) ) ;
#53 = DIRECTION ( 'NONE',  ( 0.0000000000000000000, -1.000000000000000000, 0.0000000000000000000 ) ) ;
#54 = CARTESIAN_POINT ( 'NONE',  ( 0.0000000000000000000, -1.751968503940337900, 0.0000000000000000000 ) ) ;
#55 = ORIENTED_EDGE ( 'NONE', *, *, #193, .T. ) ;
#56 =( CONVERSION_BASED_UNIT ( 'INCH', #42 ) LENGTH_UNIT ( ) NAMED_UNIT ( #136 ) );
#57 = CARTESIAN_POINT ( 'NONE',  ( 0.0000000000000000000, -1.751968503937007900, -0.1574803149606299200 ) ) ;
#58 =( CONVERSION_BASED_UNIT ( 'INCH', #108 ) LENGTH_UNIT ( ) NAMED_UNIT ( #82 ) );
#59 = ORIENTED_EDGE ( 'NONE', *, *, #175, .T. ) ;
#60 = APPLICATION_CONTEXT ( 'automotive_design' ) ;
#61 = CARTESIAN_POINT ( 'NONE',  ( 0.0000000000000000000, -1.771653543307086600, -0.06889763779527559300 ) ) ;
#62 = ADVANCED_FACE ( 'NONE', ( #171, #121 ), #211, .T. ) ;
#63 = ORIENTED_EDGE ( 'NONE', *, *, #112, .T. ) ;
#64 = PRESENTATION_STYLE_ASSIGNMENT (( #6 ) ) ;
#65 = FACE_OUTER_BOUND ( 'NONE', #46, .T. ) ;
#66 = UNCERTAINTY_MEASURE_WITH_UNIT (LENGTH_MEASURE( 1.000000000000000100E-005 ), #58, 'distance_accuracy_value', 'NONE');
#67 = MECHANICAL_DESIGN_GEOMETRIC_PRESENTATION_REPRESENTATION (  '', ( #228 ), #107 ) ;
#68 =( NAMED_UNIT ( * ) PLANE_ANGLE_UNIT ( ) SI_UNIT ( $, .RADIAN. ) );
#69 = DIRECTION ( 'NONE',  ( 0.0000000000000000000, -0.0000000000000000000, -1.000000000000000000 ) ) ;
#70 = AXIS2_PLACEMENT_3D ( 'NONE', #124, #161, #52 ) ;
#71 = CARTESIAN_POINT ( 'NONE',  ( 0.0000000000000000000, -0.1771653543265192500, 0.0000000000000000000 ) ) ;
#72 = CARTESIAN_POINT ( 'NONE',  ( 0.0000000000000000000, -1.771653543307086600, 0.0000000000000000000 ) ) ;
#73 = DIRECTION ( 'NONE',  ( 0.0000000000000000000, -1.000000000000000000, 0.0000000000000000000 ) ) ;
#74 = SURFACE_STYLE_USAGE ( .BOTH. , #41 ) ;
#75 =( LENGTH_UNIT ( ) NAMED_UNIT ( * ) SI_UNIT ( $, .METRE. ) );
#76 = FACE_OUTER_BOUND ( 'NONE', #194, .T. ) ;
#77 = ORIENTED_EDGE ( 'NONE', *, *, #123, .T. ) ;
#78 = PRODUCT ( 'DW-AD-711-M8', 'DW-AD-711-M8', '', ( #25 ) ) ;
#79 = CARTESIAN_POINT ( 'NONE',  ( 0.0000000000000000000, 0.0000000000000000000, -0.1377952755905511900 ) ) ;
#80 = CARTESIAN_POINT ( 'NONE',  ( 0.0000000000000000000, 0.0000000000000000000, 0.0000000000000000000 ) ) ;
#81 = CYLINDRICAL_SURFACE ( 'NONE', #100, 0.1377952755905511900 ) ;
#82 = DIMENSIONAL_EXPONENTS ( 1.000000000000000000, 0.0000000000000000000, 0.0000000000000000000, 0.0000000000000000000, 0.0000000000000000000, 0.0000000000000000000, 0.0000000000000000000 ) ;
#83 = CIRCLE ( 'NONE', #145, 0.06889763779527559300 ) ;
#84 = ORIENTED_EDGE ( 'NONE', *, *, #119, .T. ) ;
#85 = AXIS2_PLACEMENT_3D ( 'NONE', #54, #201, #90 ) ;
#86 = CIRCLE ( 'NONE', #14, 0.06889763779527559300 ) ;
#87 = FILL_AREA_STYLE_COLOUR ( '', #215 ) ;
#88 = ORIENTED_EDGE ( 'NONE', *, *, #196, .T. ) ;
#89 = PLANE ( 'NONE',  #212 ) ;
#90 = DIRECTION ( 'NONE',  ( 0.0000000000000000000, 0.0000000000000000000, 1.000000000000000000 ) ) ;
#91 = ORIENTED_EDGE ( 'NONE', *, *, #193, .F. ) ;
#92 = DIRECTION ( 'NONE',  ( 0.0000000000000000000, -1.000000000000000000, 0.0000000000000000000 ) ) ;
#93 = DIRECTION ( 'NONE',  ( 0.0000000000000000000, -1.000000000000000000, 0.0000000000000000000 ) ) ;
#94 = CIRCLE ( 'NONE', #231, 0.1574803149606299200 ) ;
#95 = EDGE_LOOP ( 'NONE', ( #91 ) ) ;
#96 = FILL_AREA_STYLE ('',( #221 ) ) ;
#97 = APPLICATION_CONTEXT ( 'automotive_design' ) ;
#98 = ORIENTED_EDGE ( 'NONE', *, *, #196, .F. ) ;
#99 = DIRECTION ( 'NONE',  ( 0.0000000000000000000, 0.0000000000000000000, 1.000000000000000000 ) ) ;
#100 = AXIS2_PLACEMENT_3D ( 'NONE', #18, #111, #181 ) ;
#101 = DIMENSIONAL_EXPONENTS ( 1.000000000000000000, 0.0000000000000000000, 0.0000000000000000000, 0.0000000000000000000, 0.0000000000000000000, 0.0000000000000000000, 0.0000000000000000000 ) ;
#102 = VERTEX_POINT ( 'NONE', #184 ) ;
#103 = ORIENTED_EDGE ( 'NONE', *, *, #112, .F. ) ;
#104 = MANIFOLD_SOLID_BREP ( 'Imported2', #131 ) ;
#105 = ORIENTED_EDGE ( 'NONE', *, *, #189, .T. ) ;
#106 = CARTESIAN_POINT ( 'NONE',  ( -0.06889763779527559300, 0.0000000000000000000, 0.0000000000000000000 ) ) ;
#107 =( GEOMETRIC_REPRESENTATION_CONTEXT ( 3 ) GLOBAL_UNCERTAINTY_ASSIGNED_CONTEXT ( ( #32 ) ) GLOBAL_UNIT_ASSIGNED_CONTEXT ( ( #132, #149, #207 ) ) REPRESENTATION_CONTEXT ( 'NONE', 'WORKASPACE' ) );
#108 = LENGTH_MEASURE_WITH_UNIT ( LENGTH_MEASURE( 0.02539999999999999900 ), #75 );
#109 = CARTESIAN_POINT ( 'NONE',  ( 0.0000000000000000000, -1.751968503937007900, 0.0000000000000000000 ) ) ;
#110 = DIRECTION ( 'NONE',  ( 0.0000000000000000000, -1.000000000000000000, 0.0000000000000000000 ) ) ;
#111 = DIRECTION ( 'NONE',  ( 0.0000000000000000000, -1.000000000000000000, 0.0000000000000000000 ) ) ;
#112 = EDGE_CURVE ( 'NONE', #21, #21, #235, .T. ) ;
#113 = DIRECTION ( 'NONE',  ( 0.0000000000000000000, 0.0000000000000000000, -1.000000000000000000 ) ) ;
#114 = DIRECTION ( 'NONE',  ( 0.0000000000000000000, 0.0000000000000000000, -1.000000000000000000 ) ) ;
#115 = STYLED_ITEM ( 'NONE', ( #172 ), #144 ) ;
#116 = FACE_OUTER_BOUND ( 'NONE', #16, .T. ) ;
#117 = ADVANCED_FACE ( 'NONE', ( #186 ), #140, .T. ) ;
#118 = EDGE_LOOP ( 'NONE', ( #105 ) ) ;
#119 = EDGE_CURVE ( 'NONE', #102, #102, #94, .T. ) ;
#120 = PRODUCT_DEFINITION_CONTEXT ( 'detailed design', #60, 'design' ) ;
#121 = FACE_OUTER_BOUND ( 'NONE', #153, .T. ) ;
#122 = DIRECTION ( 'NONE',  ( 0.0000000000000000000, 0.0000000000000000000, -1.000000000000000000 ) ) ;
#123 = EDGE_CURVE ( 'NONE', #229, #229, #86, .T. ) ;
#124 = CARTESIAN_POINT ( 'NONE',  ( 0.0000000000000000000, -1.771653543307713200, 0.0000000000000000000 ) ) ;
#125 = CARTESIAN_POINT ( 'NONE',  ( 0.0000000000000000000, -2.559055118110236600, 0.0000000000000000000 ) ) ;
#126 = CONICAL_SURFACE ( 'NONE', #85, 0.1574803149569060100, 0.7853981633406048600 ) ;
#127 = CARTESIAN_POINT ( 'NONE',  ( 0.0000000000000000000, -0.1771653543307086800, 0.0000000000000000000 ) ) ;
#128 = CARTESIAN_POINT ( 'NONE',  ( 0.0000000000000000000, -2.165354330708661600, 0.0000000000000000000 ) ) ;
#129 = DIRECTION ( 'NONE',  ( 0.0000000000000000000, -1.000000000000000000, 0.0000000000000000000 ) ) ;
#130 = CIRCLE ( 'NONE', #223, 0.1377952755895306700 ) ;
#131 = CLOSED_SHELL ( 'NONE', ( #62, #209, #188, #117, #185, #4 ) ) ;
#132 =( CONVERSION_BASED_UNIT ( 'INCH', #20 ) LENGTH_UNIT ( ) NAMED_UNIT ( #1 ) );
#133 =( LENGTH_UNIT ( ) NAMED_UNIT ( * ) SI_UNIT ( $, .METRE. ) );
#134 = COLOUR_RGB ( '',0.7921568627450980000, 0.8196078431372548800, 0.9333333333333333500 ) ;
#135 = ADVANCED_FACE ( 'NONE', ( #47 ), #217, .T. ) ;
#136 = DIMENSIONAL_EXPONENTS ( 1.000000000000000000, 0.0000000000000000000, 0.0000000000000000000, 0.0000000000000000000, 0.0000000000000000000, 0.0000000000000000000, 0.0000000000000000000 ) ;
#137 = EDGE_LOOP ( 'NONE', ( #88 ) ) ;
#138 = PRODUCT_RELATED_PRODUCT_CATEGORY ( 'part', '', ( #78 ) ) ;
#139 = ORIENTED_EDGE ( 'NONE', *, *, #175, .F. ) ;
#140 = PLANE ( 'NONE',  #222 ) ;
#141 = CARTESIAN_POINT ( 'NONE',  ( 0.0000000000000000000, -1.771653543307086600, 0.0000000000000000000 ) ) ;
#142 = CLOSED_SHELL ( 'NONE', ( #167, #135, #151 ) ) ;
#143 = CARTESIAN_POINT ( 'NONE',  ( -0.03444881889763779700, -2.559055118110236600, 0.0000000000000000000 ) ) ;
#144 = MANIFOLD_SOLID_BREP ( 'Imported3', #142 ) ;
#145 = AXIS2_PLACEMENT_3D ( 'NONE', #125, #19, #2 ) ;
#146 = PLANE ( 'NONE',  #48 ) ;
#147 = VERTEX_POINT ( 'NONE', #218 ) ;
#148 =( NAMED_UNIT ( * ) PLANE_ANGLE_UNIT ( ) SI_UNIT ( $, .RADIAN. ) );
#149 =( NAMED_UNIT ( * ) PLANE_ANGLE_UNIT ( ) SI_UNIT ( $, .RADIAN. ) );
#150 = AXIS2_PLACEMENT_3D ( 'NONE', #173, #226, #214 ) ;
#151 = ADVANCED_FACE ( 'NONE', ( #76 ), #146, .F. ) ;
#152 = CIRCLE ( 'NONE', #191, 0.1377952755905511900 ) ;
#153 = EDGE_LOOP ( 'NONE', ( #84 ) ) ;
#154 = PRESENTATION_STYLE_ASSIGNMENT (( #177 ) ) ;
#155 =( GEOMETRIC_REPRESENTATION_CONTEXT ( 3 ) GLOBAL_UNCERTAINTY_ASSIGNED_CONTEXT ( ( #66 ) ) GLOBAL_UNIT_ASSIGNED_CONTEXT ( ( #58, #5, #203 ) ) REPRESENTATION_CONTEXT ( 'NONE', 'WORKASPACE' ) );
#156 = FILL_AREA_STYLE ('',( #87 ) ) ;
#157 = SHAPE_DEFINITION_REPRESENTATION ( #22, #225 ) ;
#158 =( NAMED_UNIT ( * ) SI_UNIT ( $, .STERADIAN. ) SOLID_ANGLE_UNIT ( ) );
#159 = DIRECTION ( 'NONE',  ( 0.0000000000000000000, -0.0000000000000000000, -1.000000000000000000 ) ) ;
#160 = AXIS2_PLACEMENT_3D ( 'NONE', #109, #230, #122 ) ;
#161 = DIRECTION ( 'NONE',  ( 0.0000000000000000000, 1.000000000000000000, 0.0000000000000000000 ) ) ;
#162 =( LENGTH_UNIT ( ) NAMED_UNIT ( * ) SI_UNIT ( $, .METRE. ) );
#163 = DIRECTION ( 'NONE',  ( 0.0000000000000000000, 0.0000000000000000000, -1.000000000000000000 ) ) ;
#164 = CARTESIAN_POINT ( 'NONE',  ( 0.0000000000000000000, -0.1574803149591439400, 0.0000000000000000000 ) ) ;
#165 = FACE_OUTER_BOUND ( 'NONE', #118, .T. ) ;
#166 = SURFACE_STYLE_FILL_AREA ( #156 ) ;
#167 = ADVANCED_FACE ( 'NONE', ( #65, #11 ), #219, .T. ) ;
#168 = APPLICATION_PROTOCOL_DEFINITION ( 'draft international standard', 'automotive_design', 1998, #97 ) ;
#169 = CARTESIAN_POINT ( 'NONE',  ( 0.0000000000000000000, -1.771653543307713200, 0.1377952755917686300 ) ) ;
#170 = CONICAL_SURFACE ( 'NONE', #9, 0.1574803149569060100, 0.7853981633974482800 ) ;
#171 = FACE_OUTER_BOUND ( 'NONE', #174, .T. ) ;
#172 = PRESENTATION_STYLE_ASSIGNMENT (( #74 ) ) ;
#173 = CARTESIAN_POINT ( 'NONE',  ( 0.0000000000000000000, -0.9645669291338583300, 0.0000000000000000000 ) ) ;
#174 = EDGE_LOOP ( 'NONE', ( #63 ) ) ;
#175 = EDGE_CURVE ( 'NONE', #15, #15, #130, .T. ) ;
#176 =( LENGTH_UNIT ( ) NAMED_UNIT ( * ) SI_UNIT ( $, .METRE. ) );
#177 = SURFACE_STYLE_USAGE ( .BOTH. , #37 ) ;
#178 = SURFACE_STYLE_FILL_AREA ( #96 ) ;
#179 = VERTEX_POINT ( 'NONE', #169 ) ;
#180 = CARTESIAN_POINT ( 'NONE',  ( 0.0000000000000000000, 0.0000000000000000000, 0.0000000000000000000 ) ) ;
#181 = DIRECTION ( 'NONE',  ( 0.0000000000000000000, 0.0000000000000000000, -1.000000000000000000 ) ) ;
#182 = COLOUR_RGB ( '',0.7921568627450980000, 0.8196078431372548800, 0.9333333333333333500 ) ;
#183 = EDGE_LOOP ( 'NONE', ( #98 ) ) ;
#184 = CARTESIAN_POINT ( 'NONE',  ( 0.0000000000000000000, -0.1771653543307086800, -0.1574803149606299200 ) ) ;
#185 = ADVANCED_FACE ( 'NONE', ( #192, #165 ), #81, .T. ) ;
#186 = FACE_OUTER_BOUND ( 'NONE', #95, .T. ) ;
#187 = APPLICATION_PROTOCOL_DEFINITION ( 'draft international standard', 'automotive_design', 1998, #60 ) ;
#188 = ADVANCED_FACE ( 'NONE', ( #116, #49 ), #170, .T. ) ;
#189 = EDGE_CURVE ( 'NONE', #204, #204, #152, .T. ) ;
#190 = LENGTH_MEASURE_WITH_UNIT ( LENGTH_MEASURE( 0.02539999999999999900 ), #176 );
#191 = AXIS2_PLACEMENT_3D ( 'NONE', #180, #40, #163 ) ;
#192 = FACE_OUTER_BOUND ( 'NONE', #26, .T. ) ;
#193 = EDGE_CURVE ( 'NONE', #179, #179, #33, .T. ) ;
#194 = EDGE_LOOP ( 'NONE', ( #8 ) ) ;
#195 = CARTESIAN_POINT ( 'NONE',  ( -0.1033464566929134000, -1.771653543307086600, 0.0000000000000000000 ) ) ;
#196 = EDGE_CURVE ( 'NONE', #147, #147, #83, .T. ) ;
#197 = FILL_AREA_STYLE ('',( #198 ) ) ;
#198 = FILL_AREA_STYLE_COLOUR ( '', #182 ) ;
#199 =( NAMED_UNIT ( * ) SI_UNIT ( $, .STERADIAN. ) SOLID_ANGLE_UNIT ( ) );
#200 = DIRECTION ( 'NONE',  ( 0.0000000000000000000, 0.0000000000000000000, -1.000000000000000000 ) ) ;
#201 = DIRECTION ( 'NONE',  ( 0.0000000000000000000, 1.000000000000000000, 0.0000000000000000000 ) ) ;
#202 = PRODUCT_DEFINITION_FORMATION_WITH_SPECIFIED_SOURCE ( 'ANY', '', #78, .NOT_KNOWN. ) ;
#203 =( NAMED_UNIT ( * ) SI_UNIT ( $, .STERADIAN. ) SOLID_ANGLE_UNIT ( ) );
#204 = VERTEX_POINT ( 'NONE', #79 ) ;
#205 = EDGE_LOOP ( 'NONE', ( #43 ) ) ;
#206 = CARTESIAN_POINT ( 'NONE',  ( -0.1377952755895306700, -0.1574803149591439400, 0.0000000000000000000 ) ) ;
#207 =( NAMED_UNIT ( * ) SI_UNIT ( $, .STERADIAN. ) SOLID_ANGLE_UNIT ( ) );
#208 = MECHANICAL_DESIGN_GEOMETRIC_PRESENTATION_REPRESENTATION (  '', ( #45 ), #31 ) ;
#209 = ADVANCED_FACE ( 'NONE', ( #29, #213 ), #126, .T. ) ;
#210 = MECHANICAL_DESIGN_GEOMETRIC_PRESENTATION_REPRESENTATION (  '', ( #115 ), #38 ) ;
#211 = CYLINDRICAL_SURFACE ( 'NONE', #150, 0.1574803149606299200 ) ;
#212 = AXIS2_PLACEMENT_3D ( 'NONE', #106, #13, #35 ) ;
#213 = FACE_OUTER_BOUND ( 'NONE', #12, .T. ) ;
#214 = DIRECTION ( 'NONE',  ( 0.0000000000000000000, 0.0000000000000000000, -1.000000000000000000 ) ) ;
#215 = COLOUR_RGB ( '',0.7921568627450980000, 0.8196078431372548800, 0.9333333333333333500 ) ;
#216 = DIRECTION ( 'NONE',  ( 0.0000000000000000000, -0.0000000000000000000, -1.000000000000000000 ) ) ;
#217 = PLANE ( 'NONE',  #10 ) ;
#218 = CARTESIAN_POINT ( 'NONE',  ( 0.0000000000000000000, -2.559055118110236600, -0.06889763779527559300 ) ) ;
#219 = CYLINDRICAL_SURFACE ( 'NONE', #51, 0.06889763779527559300 ) ;
#220 = EDGE_LOOP ( 'NONE', ( #55 ) ) ;
#221 = FILL_AREA_STYLE_COLOUR ( '', #134 ) ;
#222 = AXIS2_PLACEMENT_3D ( 'NONE', #195, #50, #159 ) ;
#223 = AXIS2_PLACEMENT_3D ( 'NONE', #164, #110, #234 ) ;
#224 = FACE_OUTER_BOUND ( 'NONE', #205, .T. ) ;
#225 = ADVANCED_BREP_SHAPE_REPRESENTATION ( 'DW-AD-711-M8', ( #104, #144, #3 ), #155 ) ;
#226 = DIRECTION ( 'NONE',  ( 0.0000000000000000000, -1.000000000000000000, 0.0000000000000000000 ) ) ;
#227 = PRESENTATION_LAYER_ASSIGNMENT (  '', '', ( #45 ) ) ;
#228 = STYLED_ITEM ( 'NONE', ( #64 ), #225 ) ;
#229 = VERTEX_POINT ( 'NONE', #61 ) ;
#230 = DIRECTION ( 'NONE',  ( -0.0000000000000000000, 1.000000000000000000, -0.0000000000000000000 ) ) ;
#231 = AXIS2_PLACEMENT_3D ( 'NONE', #127, #93, #114 ) ;
#232 = DIRECTION ( 'NONE',  ( 0.0000000000000000000, -1.000000000000000000, 0.0000000000000000000 ) ) ;
#233 = UNCERTAINTY_MEASURE_WITH_UNIT (LENGTH_MEASURE( 1.000000000000000100E-005 ), #17, 'distance_accuracy_value', 'NONE');
#234 = DIRECTION ( 'NONE',  ( -1.000000000000000000, 0.0000000000000000000, 0.0000000000000000000 ) ) ;
#235 = CIRCLE ( 'NONE', #160, 0.1574803149606299200 ) ;
ENDSEC;
END-ISO-10303-21;
