ISO-10303-21;
HEADER;
FILE_DESCRIPTION (( 'STEP AP214' ),
    '1' );
FILE_NAME ('DW-AD-712-M8.STEP',
    '2018-04-11T17:30:23',
    ( '' ),
    ( '' ),
    'SwSTEP 2.0',
    'SolidWorks 2017',
    '' );
FILE_SCHEMA (( 'AUTOMOTIVE_DESIGN' ));
ENDSEC;

DATA;
#1 =( NAMED_UNIT ( * ) SI_UNIT ( $, .STERADIAN. ) SOLID_ANGLE_UNIT ( ) );
#2 = SURFACE_STYLE_USAGE ( .BOTH. , #98 ) ;
#3 = DIRECTION ( 'NONE',  ( -0.0000000000000000000, 1.000000000000000000, -0.0000000000000000000 ) ) ;
#4 = ORIENTED_EDGE ( 'NONE', *, *, #63, .F. ) ;
#5 = PLANE ( 'NONE',  #41 ) ;
#6 = ADVANCED_FACE ( 'NONE', ( #217, #192 ), #179, .T. ) ;
#7 = AXIS2_PLACEMENT_3D ( 'NONE', #93, #12, #144 ) ;
#8 = PRODUCT_CONTEXT ( 'NONE', #130, 'mechanical' ) ;
#9 = VERTEX_POINT ( 'NONE', #211 ) ;
#10 =( GEOMETRIC_REPRESENTATION_CONTEXT ( 3 ) GLOBAL_UNCERTAINTY_ASSIGNED_CONTEXT ( ( #50 ) ) GLOBAL_UNIT_ASSIGNED_CONTEXT ( ( #196, #62, #82 ) ) REPRESENTATION_CONTEXT ( 'NONE', 'WORKASPACE' ) );
#11 = AXIS2_PLACEMENT_3D ( 'NONE', #97, #29, #183 ) ;
#12 = DIRECTION ( 'NONE',  ( 0.0000000000000000000, 1.000000000000000000, 0.0000000000000000000 ) ) ;
#13 = AXIS2_PLACEMENT_3D ( 'NONE', #36, #132, #59 ) ;
#14 = FACE_OUTER_BOUND ( 'NONE', #49, .T. ) ;
#15 = DIRECTION ( 'NONE',  ( 0.0000000000000000000, -0.0000000000000000000, -1.000000000000000000 ) ) ;
#16 = DIRECTION ( 'NONE',  ( 0.0000000000000000000, 0.0000000000000000000, -1.000000000000000000 ) ) ;
#17 = FACE_OUTER_BOUND ( 'NONE', #27, .T. ) ;
#18 = DIRECTION ( 'NONE',  ( 0.0000000000000000000, -1.000000000000000000, 0.0000000000000000000 ) ) ;
#19 = DIRECTION ( 'NONE',  ( 0.0000000000000000000, -1.000000000000000000, 0.0000000000000000000 ) ) ;
#20 = CONICAL_SURFACE ( 'NONE', #176, 0.1574803149569060100, 0.7853981633974482800 ) ;
#21 = VERTEX_POINT ( 'NONE', #116 ) ;
#22 = CLOSED_SHELL ( 'NONE', ( #103, #6, #145, #129, #151, #78 ) ) ;
#23 = MANIFOLD_SOLID_BREP ( 'Imported3', #44 ) ;
#24 = AXIS2_PLACEMENT_3D ( 'NONE', #148, #19, #152 ) ;
#25 = CIRCLE ( 'NONE', #160, 0.1377952755905511900 ) ;
#26 = SURFACE_STYLE_FILL_AREA ( #102 ) ;
#27 = EDGE_LOOP ( 'NONE', ( #68 ) ) ;
#28 = CIRCLE ( 'NONE', #188, 0.06889763779527559300 ) ;
#29 = DIRECTION ( 'NONE',  ( 0.0000000000000000000, 1.000000000000000000, -0.0000000000000000000 ) ) ;
#30 = DIRECTION ( 'NONE',  ( 0.0000000000000000000, 0.0000000000000000000, -1.000000000000000000 ) ) ;
#31 = FILL_AREA_STYLE_COLOUR ( '', #85 ) ;
#32 = DIMENSIONAL_EXPONENTS ( 1.000000000000000000, 0.0000000000000000000, 0.0000000000000000000, 0.0000000000000000000, 0.0000000000000000000, 0.0000000000000000000, 0.0000000000000000000 ) ;
#33 = CARTESIAN_POINT ( 'NONE',  ( 0.0000000000000000000, -1.771653543307086600, 0.0000000000000000000 ) ) ;
#34 = EDGE_LOOP ( 'NONE', ( #40 ) ) ;
#35 =( CONVERSION_BASED_UNIT ( 'INCH', #171 ) LENGTH_UNIT ( ) NAMED_UNIT ( #32 ) );
#36 = CARTESIAN_POINT ( 'NONE',  ( 0.0000000000000000000, -2.165354330708661600, 0.0000000000000000000 ) ) ;
#37 = PLANE ( 'NONE',  #124 ) ;
#38 = CARTESIAN_POINT ( 'NONE',  ( 0.0000000000000000000, -1.771653543307713200, 0.1377952755917686300 ) ) ;
#39 =( CONVERSION_BASED_UNIT ( 'INCH', #158 ) LENGTH_UNIT ( ) NAMED_UNIT ( #153 ) );
#40 = ORIENTED_EDGE ( 'NONE', *, *, #128, .T. ) ;
#41 = AXIS2_PLACEMENT_3D ( 'NONE', #33, #53, #15 ) ;
#42 = DIRECTION ( 'NONE',  ( 0.0000000000000000000, 0.0000000000000000000, 1.000000000000000000 ) ) ;
#43 =( LENGTH_UNIT ( ) NAMED_UNIT ( * ) SI_UNIT ( $, .METRE. ) );
#44 = CLOSED_SHELL ( 'NONE', ( #193, #202, #195 ) ) ;
#45 = UNCERTAINTY_MEASURE_WITH_UNIT (LENGTH_MEASURE( 1.000000000000000100E-005 ), #35, 'distance_accuracy_value', 'NONE');
#46 = EDGE_CURVE ( 'NONE', #21, #21, #71, .T. ) ;
#47 = ORIENTED_EDGE ( 'NONE', *, *, #231, .T. ) ;
#48 = FACE_OUTER_BOUND ( 'NONE', #175, .T. ) ;
#49 = EDGE_LOOP ( 'NONE', ( #126 ) ) ;
#50 = UNCERTAINTY_MEASURE_WITH_UNIT (LENGTH_MEASURE( 1.000000000000000100E-005 ), #196, 'distance_accuracy_value', 'NONE');
#51 = AXIS2_PLACEMENT_3D ( 'NONE', #207, #79, #190 ) ;
#52 = EDGE_LOOP ( 'NONE', ( #233 ) ) ;
#53 = DIRECTION ( 'NONE',  ( 0.0000000000000000000, -1.000000000000000000, 0.0000000000000000000 ) ) ;
#54 = DIRECTION ( 'NONE',  ( 0.0000000000000000000, 1.000000000000000000, 0.0000000000000000000 ) ) ;
#55 = VERTEX_POINT ( 'NONE', #38 ) ;
#56 = SURFACE_STYLE_USAGE ( .BOTH. , #170 ) ;
#57 = ORIENTED_EDGE ( 'NONE', *, *, #128, .F. ) ;
#58 = PRESENTATION_LAYER_ASSIGNMENT (  '', '', ( #90 ) ) ;
#59 = DIRECTION ( 'NONE',  ( 0.0000000000000000000, 0.0000000000000000000, -1.000000000000000000 ) ) ;
#60 =( NAMED_UNIT ( * ) PLANE_ANGLE_UNIT ( ) SI_UNIT ( $, .RADIAN. ) );
#61 = FACE_OUTER_BOUND ( 'NONE', #96, .T. ) ;
#62 =( NAMED_UNIT ( * ) PLANE_ANGLE_UNIT ( ) SI_UNIT ( $, .RADIAN. ) );
#63 = EDGE_CURVE ( 'NONE', #208, #208, #28, .T. ) ;
#64 = PRESENTATION_STYLE_ASSIGNMENT (( #115 ) ) ;
#65 = PRODUCT_DEFINITION ( 'UNKNOWN', '', #178, #168 ) ;
#66 = LENGTH_MEASURE_WITH_UNIT ( LENGTH_MEASURE( 0.02539999999999999900 ), #43 );
#67 = CYLINDRICAL_SURFACE ( 'NONE', #127, 0.1574803149606299200 ) ;
#68 = ORIENTED_EDGE ( 'NONE', *, *, #139, .F. ) ;
#69 = FILL_AREA_STYLE ('',( #31 ) ) ;
#70 = CARTESIAN_POINT ( 'NONE',  ( 0.0000000000000000000, -1.771653543307086600, 0.0000000000000000000 ) ) ;
#71 = CIRCLE ( 'NONE', #92, 0.06889763779527559300 ) ;
#72 = EDGE_CURVE ( 'NONE', #108, #108, #25, .T. ) ;
#73 = ORIENTED_EDGE ( 'NONE', *, *, #106, .T. ) ;
#74 = DIRECTION ( 'NONE',  ( 0.0000000000000000000, 0.0000000000000000000, 1.000000000000000000 ) ) ;
#75 = PLANE ( 'NONE',  #51 ) ;
#76 = PRODUCT_DEFINITION_SHAPE ( 'NONE', 'NONE',  #65 ) ;
#77 = CARTESIAN_POINT ( 'NONE',  ( 0.0000000000000000000, 0.0000000000000000000, 0.0000000000000000000 ) ) ;
#78 = ADVANCED_FACE ( 'NONE', ( #61 ), #235, .T. ) ;
#79 = DIRECTION ( 'NONE',  ( 0.0000000000000000000, -1.000000000000000000, 0.0000000000000000000 ) ) ;
#80 = COLOUR_RGB ( '',0.7921568627450980000, 0.8196078431372548800, 0.9333333333333333500 ) ;
#81 = PRODUCT_RELATED_PRODUCT_CATEGORY ( 'part', '', ( #140 ) ) ;
#82 =( NAMED_UNIT ( * ) SI_UNIT ( $, .STERADIAN. ) SOLID_ANGLE_UNIT ( ) );
#83 = COLOUR_RGB ( '',0.7921568627450980000, 0.8196078431372548800, 0.9333333333333333500 ) ;
#84 = APPLICATION_CONTEXT ( 'automotive_design' ) ;
#85 = COLOUR_RGB ( '',0.7921568627450980000, 0.8196078431372548800, 0.9333333333333333500 ) ;
#86 =( GEOMETRIC_REPRESENTATION_CONTEXT ( 3 ) GLOBAL_UNCERTAINTY_ASSIGNED_CONTEXT ( ( #45 ) ) GLOBAL_UNIT_ASSIGNED_CONTEXT ( ( #35, #221, #1 ) ) REPRESENTATION_CONTEXT ( 'NONE', 'WORKASPACE' ) );
#87 = ORIENTED_EDGE ( 'NONE', *, *, #106, .F. ) ;
#88 = CYLINDRICAL_SURFACE ( 'NONE', #24, 0.1377952755905511900 ) ;
#89 = ORIENTED_EDGE ( 'NONE', *, *, #72, .F. ) ;
#90 = STYLED_ITEM ( 'NONE', ( #64 ), #23 ) ;
#91 = DIRECTION ( 'NONE',  ( 0.0000000000000000000, -1.000000000000000000, 0.0000000000000000000 ) ) ;
#92 = AXIS2_PLACEMENT_3D ( 'NONE', #164, #205, #220 ) ;
#93 = CARTESIAN_POINT ( 'NONE',  ( 0.0000000000000000000, -1.751968503940337900, 0.0000000000000000000 ) ) ;
#94 = DIMENSIONAL_EXPONENTS ( 1.000000000000000000, 0.0000000000000000000, 0.0000000000000000000, 0.0000000000000000000, 0.0000000000000000000, 0.0000000000000000000, 0.0000000000000000000 ) ;
#95 = CARTESIAN_POINT ( 'NONE',  ( 0.0000000000000000000, -1.751968503937007900, -0.1574803149606299200 ) ) ;
#96 = EDGE_LOOP ( 'NONE', ( #89 ) ) ;
#97 = CARTESIAN_POINT ( 'NONE',  ( -0.06889763779527559300, 0.0000000000000000000, 0.0000000000000000000 ) ) ;
#98 = SURFACE_SIDE_STYLE ('',( #222 ) ) ;
#99 = CARTESIAN_POINT ( 'NONE',  ( 0.0000000000000000000, -1.771653543307713200, 0.0000000000000000000 ) ) ;
#100 = FILL_AREA_STYLE_COLOUR ( '', #80 ) ;
#101 = CARTESIAN_POINT ( 'NONE',  ( 0.0000000000000000000, -1.771653543307086600, -0.06889763779527559300 ) ) ;
#102 = FILL_AREA_STYLE ('',( #100 ) ) ;
#103 = ADVANCED_FACE ( 'NONE', ( #48, #197 ), #67, .T. ) ;
#104 = DIRECTION ( 'NONE',  ( 1.000000000000000000, 0.0000000000000000000, 0.0000000000000000000 ) ) ;
#105 = EDGE_LOOP ( 'NONE', ( #57 ) ) ;
#106 = EDGE_CURVE ( 'NONE', #55, #55, #166, .T. ) ;
#107 = EDGE_LOOP ( 'NONE', ( #141 ) ) ;
#108 = VERTEX_POINT ( 'NONE', #150 ) ;
#109 = EDGE_LOOP ( 'NONE', ( #142 ) ) ;
#110 = MECHANICAL_DESIGN_GEOMETRIC_PRESENTATION_REPRESENTATION (  '', ( #163 ), #177 ) ;
#111 = DIRECTION ( 'NONE',  ( 0.0000000000000000000, -1.000000000000000000, 0.0000000000000000000 ) ) ;
#112 = CARTESIAN_POINT ( 'NONE',  ( 0.0000000000000000000, 0.0000000000000000000, 0.0000000000000000000 ) ) ;
#113 = CIRCLE ( 'NONE', #143, 0.1574803149606299200 ) ;
#114 = DIRECTION ( 'NONE',  ( 0.0000000000000000000, 0.0000000000000000000, -1.000000000000000000 ) ) ;
#115 = SURFACE_STYLE_USAGE ( .BOTH. , #147 ) ;
#116 = CARTESIAN_POINT ( 'NONE',  ( 0.0000000000000000000, -2.559055118110236600, -0.06889763779527559300 ) ) ;
#117 = UNCERTAINTY_MEASURE_WITH_UNIT (LENGTH_MEASURE( 1.000000000000000100E-005 ), #133, 'distance_accuracy_value', 'NONE');
#118 = DIRECTION ( 'NONE',  ( 0.0000000000000000000, -1.000000000000000000, 0.0000000000000000000 ) ) ;
#119 = LENGTH_MEASURE_WITH_UNIT ( LENGTH_MEASURE( 0.02539999999999999900 ), #120 );
#120 =( LENGTH_UNIT ( ) NAMED_UNIT ( * ) SI_UNIT ( $, .METRE. ) );
#121 = SURFACE_STYLE_FILL_AREA ( #69 ) ;
#122 = CARTESIAN_POINT ( 'NONE',  ( -0.1033464566929134000, -1.771653543307086600, 0.0000000000000000000 ) ) ;
#123 =( LENGTH_UNIT ( ) NAMED_UNIT ( * ) SI_UNIT ( $, .METRE. ) );
#124 = AXIS2_PLACEMENT_3D ( 'NONE', #122, #18, #189 ) ;
#125 = FACE_OUTER_BOUND ( 'NONE', #209, .T. ) ;
#126 = ORIENTED_EDGE ( 'NONE', *, *, #63, .T. ) ;
#127 = AXIS2_PLACEMENT_3D ( 'NONE', #234, #162, #223 ) ;
#128 = EDGE_CURVE ( 'NONE', #9, #9, #161, .T. ) ;
#129 = ADVANCED_FACE ( 'NONE', ( #137 ), #37, .T. ) ;
#130 = APPLICATION_CONTEXT ( 'automotive_design' ) ;
#131 = CIRCLE ( 'NONE', #232, 0.1574803149606299200 ) ;
#132 = DIRECTION ( 'NONE',  ( 0.0000000000000000000, -1.000000000000000000, 0.0000000000000000000 ) ) ;
#133 =( CONVERSION_BASED_UNIT ( 'INCH', #119 ) LENGTH_UNIT ( ) NAMED_UNIT ( #94 ) );
#134 = DIRECTION ( 'NONE',  ( 0.0000000000000000000, -1.000000000000000000, 0.0000000000000000000 ) ) ;
#135 = EDGE_LOOP ( 'NONE', ( #185 ) ) ;
#136 = SHAPE_DEFINITION_REPRESENTATION ( #76, #173 ) ;
#137 = FACE_OUTER_BOUND ( 'NONE', #138, .T. ) ;
#138 = EDGE_LOOP ( 'NONE', ( #87 ) ) ;
#139 = EDGE_CURVE ( 'NONE', #155, #155, #113, .T. ) ;
#140 = PRODUCT ( 'DW-AD-712-M8', 'DW-AD-712-M8', '', ( #8 ) ) ;
#141 = ORIENTED_EDGE ( 'NONE', *, *, #46, .F. ) ;
#142 = ORIENTED_EDGE ( 'NONE', *, *, #139, .T. ) ;
#143 = AXIS2_PLACEMENT_3D ( 'NONE', #226, #169, #16 ) ;
#144 = DIRECTION ( 'NONE',  ( 0.0000000000000000000, 0.0000000000000000000, 1.000000000000000000 ) ) ;
#145 = ADVANCED_FACE ( 'NONE', ( #17, #184 ), #20, .T. ) ;
#146 = APPLICATION_PROTOCOL_DEFINITION ( 'draft international standard', 'automotive_design', 1998, #130 ) ;
#147 = SURFACE_SIDE_STYLE ('',( #121 ) ) ;
#148 = CARTESIAN_POINT ( 'NONE',  ( 0.0000000000000000000, -0.07874015748031496000, 0.0000000000000000000 ) ) ;
#149 = MECHANICAL_DESIGN_GEOMETRIC_PRESENTATION_REPRESENTATION (  '', ( #90 ), #86 ) ;
#150 = CARTESIAN_POINT ( 'NONE',  ( 0.0000000000000000000, 0.0000000000000000000, -0.1377952755905511900 ) ) ;
#151 = ADVANCED_FACE ( 'NONE', ( #228, #215 ), #88, .T. ) ;
#152 = DIRECTION ( 'NONE',  ( 0.0000000000000000000, 0.0000000000000000000, -1.000000000000000000 ) ) ;
#153 = DIMENSIONAL_EXPONENTS ( 1.000000000000000000, 0.0000000000000000000, 0.0000000000000000000, 0.0000000000000000000, 0.0000000000000000000, 0.0000000000000000000, 0.0000000000000000000 ) ;
#154 = PRESENTATION_LAYER_ASSIGNMENT (  '', '', ( #163 ) ) ;
#155 = VERTEX_POINT ( 'NONE', #167 ) ;
#156 = EDGE_LOOP ( 'NONE', ( #225 ) ) ;
#157 = AXIS2_PLACEMENT_3D ( 'NONE', #77, #42, #104 ) ;
#158 = LENGTH_MEASURE_WITH_UNIT ( LENGTH_MEASURE( 0.02539999999999999900 ), #123 );
#159 = FACE_OUTER_BOUND ( 'NONE', #135, .T. ) ;
#160 = AXIS2_PLACEMENT_3D ( 'NONE', #112, #111, #30 ) ;
#161 = CIRCLE ( 'NONE', #181, 0.1377952755895306700 ) ;
#162 = DIRECTION ( 'NONE',  ( 0.0000000000000000000, -1.000000000000000000, 0.0000000000000000000 ) ) ;
#163 = STYLED_ITEM ( 'NONE', ( #182 ), #216 ) ;
#164 = CARTESIAN_POINT ( 'NONE',  ( 0.0000000000000000000, -2.559055118110236600, 0.0000000000000000000 ) ) ;
#165 = FILL_AREA_STYLE_COLOUR ( '', #83 ) ;
#166 = CIRCLE ( 'NONE', #204, 0.1377952755917686300 ) ;
#167 = CARTESIAN_POINT ( 'NONE',  ( 0.0000000000000000000, -0.1771653543307086800, -0.1574803149606299200 ) ) ;
#168 = PRODUCT_DEFINITION_CONTEXT ( 'detailed design', #84, 'design' ) ;
#169 = DIRECTION ( 'NONE',  ( 0.0000000000000000000, -1.000000000000000000, 0.0000000000000000000 ) ) ;
#170 = SURFACE_SIDE_STYLE ('',( #26 ) ) ;
#171 = LENGTH_MEASURE_WITH_UNIT ( LENGTH_MEASURE( 0.02539999999999999900 ), #201 );
#172 = PRESENTATION_STYLE_ASSIGNMENT (( #2 ) ) ;
#173 = ADVANCED_BREP_SHAPE_REPRESENTATION ( 'DW-AD-712-M8', ( #216, #23, #157 ), #198 ) ;
#174 = DIMENSIONAL_EXPONENTS ( 1.000000000000000000, 0.0000000000000000000, 0.0000000000000000000, 0.0000000000000000000, 0.0000000000000000000, 0.0000000000000000000, 0.0000000000000000000 ) ;
#175 = EDGE_LOOP ( 'NONE', ( #47 ) ) ;
#176 = AXIS2_PLACEMENT_3D ( 'NONE', #187, #134, #194 ) ;
#177 =( GEOMETRIC_REPRESENTATION_CONTEXT ( 3 ) GLOBAL_UNCERTAINTY_ASSIGNED_CONTEXT ( ( #117 ) ) GLOBAL_UNIT_ASSIGNED_CONTEXT ( ( #133, #60, #203 ) ) REPRESENTATION_CONTEXT ( 'NONE', 'WORKASPACE' ) );
#178 = PRODUCT_DEFINITION_FORMATION_WITH_SPECIFIED_SOURCE ( 'ANY', '', #140, .NOT_KNOWN. ) ;
#179 = CONICAL_SURFACE ( 'NONE', #7, 0.1574803149569060100, 0.7853981633406048600 ) ;
#180 = UNCERTAINTY_MEASURE_WITH_UNIT (LENGTH_MEASURE( 1.000000000000000100E-005 ), #39, 'distance_accuracy_value', 'NONE');
#181 = AXIS2_PLACEMENT_3D ( 'NONE', #227, #118, #210 ) ;
#182 = PRESENTATION_STYLE_ASSIGNMENT (( #56 ) ) ;
#183 = DIRECTION ( 'NONE',  ( 0.0000000000000000000, 0.0000000000000000000, 1.000000000000000000 ) ) ;
#184 = FACE_BOUND ( 'NONE', #34, .T. ) ;
#185 = ORIENTED_EDGE ( 'NONE', *, *, #46, .T. ) ;
#186 =( NAMED_UNIT ( * ) SI_UNIT ( $, .STERADIAN. ) SOLID_ANGLE_UNIT ( ) );
#187 = CARTESIAN_POINT ( 'NONE',  ( 0.0000000000000000000, -0.1771653543265192500, 0.0000000000000000000 ) ) ;
#188 = AXIS2_PLACEMENT_3D ( 'NONE', #70, #91, #200 ) ;
#189 = DIRECTION ( 'NONE',  ( 0.0000000000000000000, -0.0000000000000000000, -1.000000000000000000 ) ) ;
#190 = DIRECTION ( 'NONE',  ( 0.0000000000000000000, -0.0000000000000000000, -1.000000000000000000 ) ) ;
#191 =( NAMED_UNIT ( * ) PLANE_ANGLE_UNIT ( ) SI_UNIT ( $, .RADIAN. ) );
#192 = FACE_OUTER_BOUND ( 'NONE', #156, .T. ) ;
#193 = ADVANCED_FACE ( 'NONE', ( #14, #159 ), #213, .T. ) ;
#194 = DIRECTION ( 'NONE',  ( 0.0000000000000000000, 0.0000000000000000000, -1.000000000000000000 ) ) ;
#195 = ADVANCED_FACE ( 'NONE', ( #125 ), #5, .F. ) ;
#196 =( CONVERSION_BASED_UNIT ( 'INCH', #66 ) LENGTH_UNIT ( ) NAMED_UNIT ( #174 ) );
#197 = FACE_OUTER_BOUND ( 'NONE', #109, .T. ) ;
#198 =( GEOMETRIC_REPRESENTATION_CONTEXT ( 3 ) GLOBAL_UNCERTAINTY_ASSIGNED_CONTEXT ( ( #180 ) ) GLOBAL_UNIT_ASSIGNED_CONTEXT ( ( #39, #191, #186 ) ) REPRESENTATION_CONTEXT ( 'NONE', 'WORKASPACE' ) );
#199 = VERTEX_POINT ( 'NONE', #95 ) ;
#200 = DIRECTION ( 'NONE',  ( 0.0000000000000000000, 0.0000000000000000000, -1.000000000000000000 ) ) ;
#201 =( LENGTH_UNIT ( ) NAMED_UNIT ( * ) SI_UNIT ( $, .METRE. ) );
#202 = ADVANCED_FACE ( 'NONE', ( #219 ), #75, .T. ) ;
#203 =( NAMED_UNIT ( * ) SI_UNIT ( $, .STERADIAN. ) SOLID_ANGLE_UNIT ( ) );
#204 = AXIS2_PLACEMENT_3D ( 'NONE', #99, #54, #74 ) ;
#205 = DIRECTION ( 'NONE',  ( -0.0000000000000000000, 1.000000000000000000, -0.0000000000000000000 ) ) ;
#206 = FILL_AREA_STYLE ('',( #165 ) ) ;
#207 = CARTESIAN_POINT ( 'NONE',  ( -0.03444881889763779700, -2.559055118110236600, 0.0000000000000000000 ) ) ;
#208 = VERTEX_POINT ( 'NONE', #101 ) ;
#209 = EDGE_LOOP ( 'NONE', ( #4 ) ) ;
#210 = DIRECTION ( 'NONE',  ( -1.000000000000000000, 0.0000000000000000000, 0.0000000000000000000 ) ) ;
#211 = CARTESIAN_POINT ( 'NONE',  ( -0.1377952755895306700, -0.1574803149591439400, 0.0000000000000000000 ) ) ;
#212 = PRESENTATION_LAYER_ASSIGNMENT (  '', '', ( #214 ) ) ;
#213 = CYLINDRICAL_SURFACE ( 'NONE', #13, 0.06889763779527559300 ) ;
#214 = STYLED_ITEM ( 'NONE', ( #172 ), #173 ) ;
#215 = FACE_OUTER_BOUND ( 'NONE', #52, .T. ) ;
#216 = MANIFOLD_SOLID_BREP ( 'Imported2', #22 ) ;
#217 = FACE_BOUND ( 'NONE', #230, .T. ) ;
#218 = MECHANICAL_DESIGN_GEOMETRIC_PRESENTATION_REPRESENTATION (  '', ( #214 ), #10 ) ;
#219 = FACE_OUTER_BOUND ( 'NONE', #107, .T. ) ;
#220 = DIRECTION ( 'NONE',  ( 0.0000000000000000000, 0.0000000000000000000, -1.000000000000000000 ) ) ;
#221 =( NAMED_UNIT ( * ) PLANE_ANGLE_UNIT ( ) SI_UNIT ( $, .RADIAN. ) );
#222 = SURFACE_STYLE_FILL_AREA ( #206 ) ;
#223 = DIRECTION ( 'NONE',  ( 0.0000000000000000000, 0.0000000000000000000, -1.000000000000000000 ) ) ;
#224 = CARTESIAN_POINT ( 'NONE',  ( 0.0000000000000000000, -1.751968503937007900, 0.0000000000000000000 ) ) ;
#225 = ORIENTED_EDGE ( 'NONE', *, *, #231, .F. ) ;
#226 = CARTESIAN_POINT ( 'NONE',  ( 0.0000000000000000000, -0.1771653543307086800, 0.0000000000000000000 ) ) ;
#227 = CARTESIAN_POINT ( 'NONE',  ( 0.0000000000000000000, -0.1574803149591439400, 0.0000000000000000000 ) ) ;
#228 = FACE_OUTER_BOUND ( 'NONE', #105, .T. ) ;
#229 = APPLICATION_PROTOCOL_DEFINITION ( 'draft international standard', 'automotive_design', 1998, #84 ) ;
#230 = EDGE_LOOP ( 'NONE', ( #73 ) ) ;
#231 = EDGE_CURVE ( 'NONE', #199, #199, #131, .T. ) ;
#232 = AXIS2_PLACEMENT_3D ( 'NONE', #224, #3, #114 ) ;
#233 = ORIENTED_EDGE ( 'NONE', *, *, #72, .T. ) ;
#234 = CARTESIAN_POINT ( 'NONE',  ( 0.0000000000000000000, -0.9645669291338583300, 0.0000000000000000000 ) ) ;
#235 = PLANE ( 'NONE',  #11 ) ;
ENDSEC;
END-ISO-10303-21;
