ISO-10303-21;
HEADER;
FILE_DESCRIPTION (( 'STEP AP214' ),
    '1' );
FILE_NAME ('DW-AD-713-M8.STEP',
    '2018-04-11T17:30:47',
    ( '' ),
    ( '' ),
    'SwSTEP 2.0',
    'SolidWorks 2017',
    '' );
FILE_SCHEMA (( 'AUTOMOTIVE_DESIGN' ));
ENDSEC;

DATA;
#1 = DIRECTION ( 'NONE',  ( -1.000000000000000000, 0.0000000000000000000, 0.0000000000000000000 ) ) ;
#2 = PRODUCT ( 'DW-AD-713-M8', 'DW-AD-713-M8', '', ( #69 ) ) ;
#3 = PRESENTATION_LAYER_ASSIGNMENT (  '', '', ( #227 ) ) ;
#4 = DIRECTION ( 'NONE',  ( 0.0000000000000000000, -1.000000000000000000, 0.0000000000000000000 ) ) ;
#5 = ORIENTED_EDGE ( 'NONE', *, *, #195, .T. ) ;
#6 = DIRECTION ( 'NONE',  ( 0.0000000000000000000, 0.0000000000000000000, 1.000000000000000000 ) ) ;
#7 = FILL_AREA_STYLE ('',( #47 ) ) ;
#8 = CIRCLE ( 'NONE', #158, 0.06889763779527559300 ) ;
#9 = ADVANCED_FACE ( 'NONE', ( #52, #112 ), #28, .T. ) ;
#10 =( NAMED_UNIT ( * ) SI_UNIT ( $, .STERADIAN. ) SOLID_ANGLE_UNIT ( ) );
#11 = MECHANICAL_DESIGN_GEOMETRIC_PRESENTATION_REPRESENTATION (  '', ( #228 ), #20 ) ;
#12 =( CONVERSION_BASED_UNIT ( 'INCH', #135 ) LENGTH_UNIT ( ) NAMED_UNIT ( #43 ) );
#13 = PRODUCT_RELATED_PRODUCT_CATEGORY ( 'part', '', ( #2 ) ) ;
#14 = EDGE_CURVE ( 'NONE', #94, #94, #192, .T. ) ;
#15 = VERTEX_POINT ( 'NONE', #41 ) ;
#16 = EDGE_LOOP ( 'NONE', ( #226 ) ) ;
#17 = CARTESIAN_POINT ( 'NONE',  ( -0.06889763779527559300, 0.0000000000000000000, 0.0000000000000000000 ) ) ;
#18 = EDGE_LOOP ( 'NONE', ( #5 ) ) ;
#19 = FILL_AREA_STYLE_COLOUR ( '', #57 ) ;
#20 =( GEOMETRIC_REPRESENTATION_CONTEXT ( 3 ) GLOBAL_UNCERTAINTY_ASSIGNED_CONTEXT ( ( #67 ) ) GLOBAL_UNIT_ASSIGNED_CONTEXT ( ( #188, #63, #136 ) ) REPRESENTATION_CONTEXT ( 'NONE', 'WORKASPACE' ) );
#21 = DIRECTION ( 'NONE',  ( 0.0000000000000000000, 0.0000000000000000000, 1.000000000000000000 ) ) ;
#22 = DIRECTION ( 'NONE',  ( 0.0000000000000000000, 0.0000000000000000000, -1.000000000000000000 ) ) ;
#23 = ADVANCED_FACE ( 'NONE', ( #149 ), #147, .T. ) ;
#24 = CARTESIAN_POINT ( 'NONE',  ( 0.0000000000000000000, -1.751968503937007900, -0.1574803149606299200 ) ) ;
#25 = EDGE_CURVE ( 'NONE', #110, #110, #187, .T. ) ;
#26 = MANIFOLD_SOLID_BREP ( 'Imported3', #31 ) ;
#27 = ADVANCED_FACE ( 'NONE', ( #91 ), #77, .T. ) ;
#28 = CYLINDRICAL_SURFACE ( 'NONE', #35, 0.1377952755905511900 ) ;
#29 = CARTESIAN_POINT ( 'NONE',  ( 0.0000000000000000000, 0.0000000000000000000, 0.0000000000000000000 ) ) ;
#30 = AXIS2_PLACEMENT_3D ( 'NONE', #87, #131, #21 ) ;
#31 = CLOSED_SHELL ( 'NONE', ( #132, #27, #120 ) ) ;
#32 = AXIS2_PLACEMENT_3D ( 'NONE', #117, #170, #1 ) ;
#33 = DIRECTION ( 'NONE',  ( 0.0000000000000000000, 0.0000000000000000000, -1.000000000000000000 ) ) ;
#34 = UNCERTAINTY_MEASURE_WITH_UNIT (LENGTH_MEASURE( 1.000000000000000100E-005 ), #145, 'distance_accuracy_value', 'NONE');
#35 = AXIS2_PLACEMENT_3D ( 'NONE', #114, #181, #33 ) ;
#36 = EDGE_LOOP ( 'NONE', ( #127 ) ) ;
#37 = FACE_OUTER_BOUND ( 'NONE', #36, .T. ) ;
#38 = CARTESIAN_POINT ( 'NONE',  ( 0.0000000000000000000, -1.751968503937007900, 0.0000000000000000000 ) ) ;
#39 = SHAPE_DEFINITION_REPRESENTATION ( #96, #44 ) ;
#40 = SURFACE_STYLE_USAGE ( .BOTH. , #83 ) ;
#41 = CARTESIAN_POINT ( 'NONE',  ( 0.0000000000000000000, -1.771653543307086600, -0.06889763779527559300 ) ) ;
#42 = DIRECTION ( 'NONE',  ( -0.0000000000000000000, 1.000000000000000000, -0.0000000000000000000 ) ) ;
#43 = DIMENSIONAL_EXPONENTS ( 1.000000000000000000, 0.0000000000000000000, 0.0000000000000000000, 0.0000000000000000000, 0.0000000000000000000, 0.0000000000000000000, 0.0000000000000000000 ) ;
#44 = ADVANCED_BREP_SHAPE_REPRESENTATION ( 'DW-AD-713-M8', ( #180, #26, #73 ), #146 ) ;
#45 = LENGTH_MEASURE_WITH_UNIT ( LENGTH_MEASURE( 0.02539999999999999900 ), #164 );
#46 = ORIENTED_EDGE ( 'NONE', *, *, #220, .T. ) ;
#47 = FILL_AREA_STYLE_COLOUR ( '', #179 ) ;
#48 = FILL_AREA_STYLE_COLOUR ( '', #229 ) ;
#49 = CIRCLE ( 'NONE', #161, 0.1377952755917686300 ) ;
#50 = AXIS2_PLACEMENT_3D ( 'NONE', #17, #61, #163 ) ;
#51 = APPLICATION_PROTOCOL_DEFINITION ( 'draft international standard', 'automotive_design', 1998, #224 ) ;
#52 = FACE_OUTER_BOUND ( 'NONE', #108, .T. ) ;
#53 = ORIENTED_EDGE ( 'NONE', *, *, #14, .T. ) ;
#54 =( GEOMETRIC_REPRESENTATION_CONTEXT ( 3 ) GLOBAL_UNCERTAINTY_ASSIGNED_CONTEXT ( ( #34 ) ) GLOBAL_UNIT_ASSIGNED_CONTEXT ( ( #145, #129, #198 ) ) REPRESENTATION_CONTEXT ( 'NONE', 'WORKASPACE' ) );
#55 = PRODUCT_DEFINITION_CONTEXT ( 'detailed design', #154, 'design' ) ;
#56 = ORIENTED_EDGE ( 'NONE', *, *, #231, .F. ) ;
#57 = COLOUR_RGB ( '',0.7921568627450980000, 0.8196078431372548800, 0.9333333333333333500 ) ;
#58 = DIRECTION ( 'NONE',  ( 0.0000000000000000000, -1.000000000000000000, 0.0000000000000000000 ) ) ;
#59 = VERTEX_POINT ( 'NONE', #191 ) ;
#60 = UNCERTAINTY_MEASURE_WITH_UNIT (LENGTH_MEASURE( 1.000000000000000100E-005 ), #140, 'distance_accuracy_value', 'NONE');
#61 = DIRECTION ( 'NONE',  ( 0.0000000000000000000, 1.000000000000000000, -0.0000000000000000000 ) ) ;
#62 = PLANE ( 'NONE',  #124 ) ;
#63 =( NAMED_UNIT ( * ) PLANE_ANGLE_UNIT ( ) SI_UNIT ( $, .RADIAN. ) );
#64 = ORIENTED_EDGE ( 'NONE', *, *, #14, .F. ) ;
#65 = CARTESIAN_POINT ( 'NONE',  ( 0.0000000000000000000, 0.0000000000000000000, -0.1377952755905511900 ) ) ;
#66 = MECHANICAL_DESIGN_GEOMETRIC_PRESENTATION_REPRESENTATION (  '', ( #185 ), #54 ) ;
#67 = UNCERTAINTY_MEASURE_WITH_UNIT (LENGTH_MEASURE( 1.000000000000000100E-005 ), #188, 'distance_accuracy_value', 'NONE');
#68 = DIRECTION ( 'NONE',  ( 0.0000000000000000000, 0.0000000000000000000, -1.000000000000000000 ) ) ;
#69 = PRODUCT_CONTEXT ( 'NONE', #224, 'mechanical' ) ;
#70 = FACE_OUTER_BOUND ( 'NONE', #160, .T. ) ;
#71 = FILL_AREA_STYLE ('',( #48 ) ) ;
#72 = VERTEX_POINT ( 'NONE', #107 ) ;
#73 = AXIS2_PLACEMENT_3D ( 'NONE', #29, #153, #207 ) ;
#74 = EDGE_LOOP ( 'NONE', ( #125 ) ) ;
#75 = AXIS2_PLACEMENT_3D ( 'NONE', #199, #183, #218 ) ;
#76 = AXIS2_PLACEMENT_3D ( 'NONE', #165, #221, #152 ) ;
#77 = PLANE ( 'NONE',  #141 ) ;
#78 = EDGE_LOOP ( 'NONE', ( #194 ) ) ;
#79 = LENGTH_MEASURE_WITH_UNIT ( LENGTH_MEASURE( 0.02539999999999999900 ), #174 );
#80 = CARTESIAN_POINT ( 'NONE',  ( 0.0000000000000000000, -0.1771653543265192500, 0.0000000000000000000 ) ) ;
#81 = DIRECTION ( 'NONE',  ( 0.0000000000000000000, 1.000000000000000000, 0.0000000000000000000 ) ) ;
#82 = AXIS2_PLACEMENT_3D ( 'NONE', #80, #58, #233 ) ;
#83 = SURFACE_SIDE_STYLE ('',( #235 ) ) ;
#84 = DIRECTION ( 'NONE',  ( 0.0000000000000000000, 0.0000000000000000000, -1.000000000000000000 ) ) ;
#85 = EDGE_LOOP ( 'NONE', ( #210 ) ) ;
#86 = FACE_OUTER_BOUND ( 'NONE', #103, .T. ) ;
#87 = CARTESIAN_POINT ( 'NONE',  ( 0.0000000000000000000, -1.751968503940337900, 0.0000000000000000000 ) ) ;
#88 = MECHANICAL_DESIGN_GEOMETRIC_PRESENTATION_REPRESENTATION (  '', ( #227 ), #111 ) ;
#89 = FACE_OUTER_BOUND ( 'NONE', #222, .T. ) ;
#90 = UNCERTAINTY_MEASURE_WITH_UNIT (LENGTH_MEASURE( 1.000000000000000100E-005 ), #12, 'distance_accuracy_value', 'NONE');
#91 = FACE_OUTER_BOUND ( 'NONE', #201, .T. ) ;
#92 = PRESENTATION_LAYER_ASSIGNMENT (  '', '', ( #228 ) ) ;
#93 = FACE_OUTER_BOUND ( 'NONE', #171, .T. ) ;
#94 = VERTEX_POINT ( 'NONE', #24 ) ;
#95 = CARTESIAN_POINT ( 'NONE',  ( 0.0000000000000000000, 0.0000000000000000000, 0.0000000000000000000 ) ) ;
#96 = PRODUCT_DEFINITION_SHAPE ( 'NONE', 'NONE',  #193 ) ;
#97 = DIRECTION ( 'NONE',  ( 0.0000000000000000000, -1.000000000000000000, 0.0000000000000000000 ) ) ;
#98 = DIRECTION ( 'NONE',  ( -0.0000000000000000000, 1.000000000000000000, -0.0000000000000000000 ) ) ;
#99 = DIRECTION ( 'NONE',  ( 0.0000000000000000000, -0.0000000000000000000, -1.000000000000000000 ) ) ;
#100 =( LENGTH_UNIT ( ) NAMED_UNIT ( * ) SI_UNIT ( $, .METRE. ) );
#101 = CARTESIAN_POINT ( 'NONE',  ( 0.0000000000000000000, -0.1771653543307086800, -0.1574803149606299200 ) ) ;
#102 = ADVANCED_FACE ( 'NONE', ( #93, #115 ), #176, .T. ) ;
#103 = EDGE_LOOP ( 'NONE', ( #53 ) ) ;
#104 = CARTESIAN_POINT ( 'NONE',  ( -0.1377952755895306700, -0.1574803149591439400, 0.0000000000000000000 ) ) ;
#105 =( NAMED_UNIT ( * ) SI_UNIT ( $, .STERADIAN. ) SOLID_ANGLE_UNIT ( ) );
#106 = CYLINDRICAL_SURFACE ( 'NONE', #76, 0.06889763779527559300 ) ;
#107 = CARTESIAN_POINT ( 'NONE',  ( 0.0000000000000000000, -1.771653543307713200, 0.1377952755917686300 ) ) ;
#108 = EDGE_LOOP ( 'NONE', ( #156 ) ) ;
#109 = PRODUCT_DEFINITION_FORMATION_WITH_SPECIFIED_SOURCE ( 'ANY', '', #2, .NOT_KNOWN. ) ;
#110 = VERTEX_POINT ( 'NONE', #65 ) ;
#111 =( GEOMETRIC_REPRESENTATION_CONTEXT ( 3 ) GLOBAL_UNCERTAINTY_ASSIGNED_CONTEXT ( ( #60 ) ) GLOBAL_UNIT_ASSIGNED_CONTEXT ( ( #140, #205, #105 ) ) REPRESENTATION_CONTEXT ( 'NONE', 'WORKASPACE' ) );
#112 = FACE_OUTER_BOUND ( 'NONE', #78, .T. ) ;
#113 = FILL_AREA_STYLE ('',( #19 ) ) ;
#114 = CARTESIAN_POINT ( 'NONE',  ( 0.0000000000000000000, -0.07874015748031496000, 0.0000000000000000000 ) ) ;
#115 = FACE_BOUND ( 'NONE', #18, .T. ) ;
#116 = ORIENTED_EDGE ( 'NONE', *, *, #200, .T. ) ;
#117 = CARTESIAN_POINT ( 'NONE',  ( 0.0000000000000000000, -0.1574803149591439400, 0.0000000000000000000 ) ) ;
#118 = AXIS2_PLACEMENT_3D ( 'NONE', #38, #98, #234 ) ;
#119 = CARTESIAN_POINT ( 'NONE',  ( -0.1033464566929134000, -1.771653543307086600, 0.0000000000000000000 ) ) ;
#120 = ADVANCED_FACE ( 'NONE', ( #37 ), #133, .F. ) ;
#121 = DIMENSIONAL_EXPONENTS ( 1.000000000000000000, 0.0000000000000000000, 0.0000000000000000000, 0.0000000000000000000, 0.0000000000000000000, 0.0000000000000000000, 0.0000000000000000000 ) ;
#122 = AXIS2_PLACEMENT_3D ( 'NONE', #95, #97, #162 ) ;
#123 = VERTEX_POINT ( 'NONE', #104 ) ;
#124 = AXIS2_PLACEMENT_3D ( 'NONE', #119, #169, #99 ) ;
#125 = ORIENTED_EDGE ( 'NONE', *, *, #231, .T. ) ;
#126 = LENGTH_MEASURE_WITH_UNIT ( LENGTH_MEASURE( 0.02539999999999999900 ), #100 );
#127 = ORIENTED_EDGE ( 'NONE', *, *, #190, .F. ) ;
#128 = VERTEX_POINT ( 'NONE', #101 ) ;
#129 =( NAMED_UNIT ( * ) PLANE_ANGLE_UNIT ( ) SI_UNIT ( $, .RADIAN. ) );
#130 = CARTESIAN_POINT ( 'NONE',  ( 0.0000000000000000000, -2.559055118110236600, 0.0000000000000000000 ) ) ;
#131 = DIRECTION ( 'NONE',  ( 0.0000000000000000000, 1.000000000000000000, 0.0000000000000000000 ) ) ;
#132 = ADVANCED_FACE ( 'NONE', ( #212, #225 ), #106, .T. ) ;
#133 = PLANE ( 'NONE',  #75 ) ;
#134 = PRESENTATION_STYLE_ASSIGNMENT (( #232 ) ) ;
#135 = LENGTH_MEASURE_WITH_UNIT ( LENGTH_MEASURE( 0.02539999999999999900 ), #184 );
#136 =( NAMED_UNIT ( * ) SI_UNIT ( $, .STERADIAN. ) SOLID_ANGLE_UNIT ( ) );
#137 = AXIS2_PLACEMENT_3D ( 'NONE', #130, #42, #22 ) ;
#138 = DIMENSIONAL_EXPONENTS ( 1.000000000000000000, 0.0000000000000000000, 0.0000000000000000000, 0.0000000000000000000, 0.0000000000000000000, 0.0000000000000000000, 0.0000000000000000000 ) ;
#139 = CIRCLE ( 'NONE', #137, 0.06889763779527559300 ) ;
#140 =( CONVERSION_BASED_UNIT ( 'INCH', #79 ) LENGTH_UNIT ( ) NAMED_UNIT ( #121 ) );
#141 = AXIS2_PLACEMENT_3D ( 'NONE', #214, #196, #215 ) ;
#142 = ORIENTED_EDGE ( 'NONE', *, *, #200, .F. ) ;
#143 = PRESENTATION_STYLE_ASSIGNMENT (( #40 ) ) ;
#144 = EDGE_LOOP ( 'NONE', ( #116 ) ) ;
#145 =( CONVERSION_BASED_UNIT ( 'INCH', #45 ) LENGTH_UNIT ( ) NAMED_UNIT ( #167 ) );
#146 =( GEOMETRIC_REPRESENTATION_CONTEXT ( 3 ) GLOBAL_UNCERTAINTY_ASSIGNED_CONTEXT ( ( #90 ) ) GLOBAL_UNIT_ASSIGNED_CONTEXT ( ( #12, #175, #10 ) ) REPRESENTATION_CONTEXT ( 'NONE', 'WORKASPACE' ) );
#147 = PLANE ( 'NONE',  #50 ) ;
#148 = DIRECTION ( 'NONE',  ( 0.0000000000000000000, -1.000000000000000000, 0.0000000000000000000 ) ) ;
#149 = FACE_OUTER_BOUND ( 'NONE', #16, .T. ) ;
#150 = AXIS2_PLACEMENT_3D ( 'NONE', #217, #4, #202 ) ;
#151 = CARTESIAN_POINT ( 'NONE',  ( 0.0000000000000000000, -0.1771653543307086800, 0.0000000000000000000 ) ) ;
#152 = DIRECTION ( 'NONE',  ( 0.0000000000000000000, 0.0000000000000000000, -1.000000000000000000 ) ) ;
#153 = DIRECTION ( 'NONE',  ( 0.0000000000000000000, 0.0000000000000000000, 1.000000000000000000 ) ) ;
#154 = APPLICATION_CONTEXT ( 'automotive_design' ) ;
#155 = ADVANCED_FACE ( 'NONE', ( #86, #197 ), #182, .T. ) ;
#156 = ORIENTED_EDGE ( 'NONE', *, *, #195, .F. ) ;
#157 = ORIENTED_EDGE ( 'NONE', *, *, #220, .F. ) ;
#158 = AXIS2_PLACEMENT_3D ( 'NONE', #168, #219, #84 ) ;
#159 = CONICAL_SURFACE ( 'NONE', #30, 0.1574803149569060100, 0.7853981633406048600 ) ;
#160 = EDGE_LOOP ( 'NONE', ( #64 ) ) ;
#161 = AXIS2_PLACEMENT_3D ( 'NONE', #204, #81, #6 ) ;
#162 = DIRECTION ( 'NONE',  ( 0.0000000000000000000, 0.0000000000000000000, -1.000000000000000000 ) ) ;
#163 = DIRECTION ( 'NONE',  ( 0.0000000000000000000, 0.0000000000000000000, 1.000000000000000000 ) ) ;
#164 =( LENGTH_UNIT ( ) NAMED_UNIT ( * ) SI_UNIT ( $, .METRE. ) );
#165 = CARTESIAN_POINT ( 'NONE',  ( 0.0000000000000000000, -2.165354330708661600, 0.0000000000000000000 ) ) ;
#166 = AXIS2_PLACEMENT_3D ( 'NONE', #151, #148, #68 ) ;
#167 = DIMENSIONAL_EXPONENTS ( 1.000000000000000000, 0.0000000000000000000, 0.0000000000000000000, 0.0000000000000000000, 0.0000000000000000000, 0.0000000000000000000, 0.0000000000000000000 ) ;
#168 = CARTESIAN_POINT ( 'NONE',  ( 0.0000000000000000000, -1.771653543307086600, 0.0000000000000000000 ) ) ;
#169 = DIRECTION ( 'NONE',  ( 0.0000000000000000000, -1.000000000000000000, 0.0000000000000000000 ) ) ;
#170 = DIRECTION ( 'NONE',  ( 0.0000000000000000000, -1.000000000000000000, 0.0000000000000000000 ) ) ;
#171 = EDGE_LOOP ( 'NONE', ( #142 ) ) ;
#172 = PRESENTATION_STYLE_ASSIGNMENT (( #178 ) ) ;
#173 = ADVANCED_FACE ( 'NONE', ( #89 ), #62, .T. ) ;
#174 =( LENGTH_UNIT ( ) NAMED_UNIT ( * ) SI_UNIT ( $, .METRE. ) );
#175 =( NAMED_UNIT ( * ) PLANE_ANGLE_UNIT ( ) SI_UNIT ( $, .RADIAN. ) );
#176 = CONICAL_SURFACE ( 'NONE', #82, 0.1574803149569060100, 0.7853981633974482800 ) ;
#177 = APPLICATION_PROTOCOL_DEFINITION ( 'draft international standard', 'automotive_design', 1998, #154 ) ;
#178 = SURFACE_STYLE_USAGE ( .BOTH. , #189 ) ;
#179 = COLOUR_RGB ( '',0.7921568627450980000, 0.8196078431372548800, 0.9333333333333333500 ) ;
#180 = MANIFOLD_SOLID_BREP ( 'Imported2', #230 ) ;
#181 = DIRECTION ( 'NONE',  ( 0.0000000000000000000, -1.000000000000000000, 0.0000000000000000000 ) ) ;
#182 = CYLINDRICAL_SURFACE ( 'NONE', #150, 0.1574803149606299200 ) ;
#183 = DIRECTION ( 'NONE',  ( 0.0000000000000000000, -1.000000000000000000, 0.0000000000000000000 ) ) ;
#184 =( LENGTH_UNIT ( ) NAMED_UNIT ( * ) SI_UNIT ( $, .METRE. ) );
#185 = STYLED_ITEM ( 'NONE', ( #134 ), #26 ) ;
#186 = SURFACE_STYLE_FILL_AREA ( #113 ) ;
#187 = CIRCLE ( 'NONE', #122, 0.1377952755905511900 ) ;
#188 =( CONVERSION_BASED_UNIT ( 'INCH', #126 ) LENGTH_UNIT ( ) NAMED_UNIT ( #138 ) );
#189 = SURFACE_SIDE_STYLE ('',( #211 ) ) ;
#190 = EDGE_CURVE ( 'NONE', #15, #15, #8, .T. ) ;
#191 = CARTESIAN_POINT ( 'NONE',  ( 0.0000000000000000000, -2.559055118110236600, -0.06889763779527559300 ) ) ;
#192 = CIRCLE ( 'NONE', #118, 0.1574803149606299200 ) ;
#193 = PRODUCT_DEFINITION ( 'UNKNOWN', '', #109, #55 ) ;
#194 = ORIENTED_EDGE ( 'NONE', *, *, #25, .T. ) ;
#195 = EDGE_CURVE ( 'NONE', #123, #123, #208, .T. ) ;
#196 = DIRECTION ( 'NONE',  ( 0.0000000000000000000, -1.000000000000000000, 0.0000000000000000000 ) ) ;
#197 = FACE_OUTER_BOUND ( 'NONE', #144, .T. ) ;
#198 =( NAMED_UNIT ( * ) SI_UNIT ( $, .STERADIAN. ) SOLID_ANGLE_UNIT ( ) );
#199 = CARTESIAN_POINT ( 'NONE',  ( 0.0000000000000000000, -1.771653543307086600, 0.0000000000000000000 ) ) ;
#200 = EDGE_CURVE ( 'NONE', #128, #128, #223, .T. ) ;
#201 = EDGE_LOOP ( 'NONE', ( #56 ) ) ;
#202 = DIRECTION ( 'NONE',  ( 0.0000000000000000000, 0.0000000000000000000, -1.000000000000000000 ) ) ;
#203 = ADVANCED_FACE ( 'NONE', ( #206, #70 ), #159, .T. ) ;
#204 = CARTESIAN_POINT ( 'NONE',  ( 0.0000000000000000000, -1.771653543307713200, 0.0000000000000000000 ) ) ;
#205 =( NAMED_UNIT ( * ) PLANE_ANGLE_UNIT ( ) SI_UNIT ( $, .RADIAN. ) );
#206 = FACE_BOUND ( 'NONE', #209, .T. ) ;
#207 = DIRECTION ( 'NONE',  ( 1.000000000000000000, 0.0000000000000000000, 0.0000000000000000000 ) ) ;
#208 = CIRCLE ( 'NONE', #32, 0.1377952755895306700 ) ;
#209 = EDGE_LOOP ( 'NONE', ( #46 ) ) ;
#210 = ORIENTED_EDGE ( 'NONE', *, *, #190, .T. ) ;
#211 = SURFACE_STYLE_FILL_AREA ( #71 ) ;
#212 = FACE_OUTER_BOUND ( 'NONE', #85, .T. ) ;
#213 = PRESENTATION_LAYER_ASSIGNMENT (  '', '', ( #185 ) ) ;
#214 = CARTESIAN_POINT ( 'NONE',  ( -0.03444881889763779700, -2.559055118110236600, 0.0000000000000000000 ) ) ;
#215 = DIRECTION ( 'NONE',  ( 0.0000000000000000000, -0.0000000000000000000, -1.000000000000000000 ) ) ;
#216 = SURFACE_SIDE_STYLE ('',( #186 ) ) ;
#217 = CARTESIAN_POINT ( 'NONE',  ( 0.0000000000000000000, -0.9645669291338583300, 0.0000000000000000000 ) ) ;
#218 = DIRECTION ( 'NONE',  ( 0.0000000000000000000, -0.0000000000000000000, -1.000000000000000000 ) ) ;
#219 = DIRECTION ( 'NONE',  ( 0.0000000000000000000, -1.000000000000000000, 0.0000000000000000000 ) ) ;
#220 = EDGE_CURVE ( 'NONE', #72, #72, #49, .T. ) ;
#221 = DIRECTION ( 'NONE',  ( 0.0000000000000000000, -1.000000000000000000, 0.0000000000000000000 ) ) ;
#222 = EDGE_LOOP ( 'NONE', ( #157 ) ) ;
#223 = CIRCLE ( 'NONE', #166, 0.1574803149606299200 ) ;
#224 = APPLICATION_CONTEXT ( 'automotive_design' ) ;
#225 = FACE_OUTER_BOUND ( 'NONE', #74, .T. ) ;
#226 = ORIENTED_EDGE ( 'NONE', *, *, #25, .F. ) ;
#227 = STYLED_ITEM ( 'NONE', ( #172 ), #44 ) ;
#228 = STYLED_ITEM ( 'NONE', ( #143 ), #180 ) ;
#229 = COLOUR_RGB ( '',0.7921568627450980000, 0.8196078431372548800, 0.9333333333333333500 ) ;
#230 = CLOSED_SHELL ( 'NONE', ( #155, #203, #102, #173, #9, #23 ) ) ;
#231 = EDGE_CURVE ( 'NONE', #59, #59, #139, .T. ) ;
#232 = SURFACE_STYLE_USAGE ( .BOTH. , #216 ) ;
#233 = DIRECTION ( 'NONE',  ( 0.0000000000000000000, 0.0000000000000000000, -1.000000000000000000 ) ) ;
#234 = DIRECTION ( 'NONE',  ( 0.0000000000000000000, 0.0000000000000000000, -1.000000000000000000 ) ) ;
#235 = SURFACE_STYLE_FILL_AREA ( #7 ) ;
ENDSEC;
END-ISO-10303-21;
