ISO-10303-21;
HEADER;
FILE_DESCRIPTION (( 'STEP AP214' ),
    '1' );
FILE_NAME ('DW-AD-714-M8.STEP',
    '2018-04-11T17:31:00',
    ( '' ),
    ( '' ),
    'SwSTEP 2.0',
    'SolidWorks 2017',
    '' );
FILE_SCHEMA (( 'AUTOMOTIVE_DESIGN' ));
ENDSEC;

DATA;
#1 = ADVANCED_FACE ( 'NONE', ( #89 ), #110, .F. ) ;
#2 = DIMENSIONAL_EXPONENTS ( 1.000000000000000000, 0.0000000000000000000, 0.0000000000000000000, 0.0000000000000000000, 0.0000000000000000000, 0.0000000000000000000, 0.0000000000000000000 ) ;
#3 = ORIENTED_EDGE ( 'NONE', *, *, #221, .F. ) ;
#4 = ADVANCED_FACE ( 'NONE', ( #220, #187 ), #17, .T. ) ;
#5 = AXIS2_PLACEMENT_3D ( 'NONE', #30, #12, #192 ) ;
#6 = DIRECTION ( 'NONE',  ( 0.0000000000000000000, -1.000000000000000000, 0.0000000000000000000 ) ) ;
#7 = EDGE_LOOP ( 'NONE', ( #25 ) ) ;
#8 =( GEOMETRIC_REPRESENTATION_CONTEXT ( 3 ) GLOBAL_UNCERTAINTY_ASSIGNED_CONTEXT ( ( #21 ) ) GLOBAL_UNIT_ASSIGNED_CONTEXT ( ( #84, #177, #232 ) ) REPRESENTATION_CONTEXT ( 'NONE', 'WORKASPACE' ) );
#9 = CARTESIAN_POINT ( 'NONE',  ( 0.0000000000000000000, -1.771653543307713200, 0.0000000000000000000 ) ) ;
#10 = FILL_AREA_STYLE_COLOUR ( '', #112 ) ;
#11 = CARTESIAN_POINT ( 'NONE',  ( 0.0000000000000000000, -2.559055118110236600, -0.06889763779527559300 ) ) ;
#12 = DIRECTION ( 'NONE',  ( 0.0000000000000000000, -1.000000000000000000, 0.0000000000000000000 ) ) ;
#13 = AXIS2_PLACEMENT_3D ( 'NONE', #166, #52, #185 ) ;
#14 = CARTESIAN_POINT ( 'NONE',  ( 0.0000000000000000000, 0.0000000000000000000, 0.0000000000000000000 ) ) ;
#15 = FACE_OUTER_BOUND ( 'NONE', #127, .T. ) ;
#16 = SURFACE_STYLE_USAGE ( .BOTH. , #196 ) ;
#17 = CONICAL_SURFACE ( 'NONE', #158, 0.1574803149569060100, 0.7853981633406048600 ) ;
#18 = AXIS2_PLACEMENT_3D ( 'NONE', #61, #45, #134 ) ;
#19 = PRODUCT_DEFINITION_CONTEXT ( 'detailed design', #211, 'design' ) ;
#20 = EDGE_LOOP ( 'NONE', ( #201 ) ) ;
#21 = UNCERTAINTY_MEASURE_WITH_UNIT (LENGTH_MEASURE( 1.000000000000000100E-005 ), #84, 'distance_accuracy_value', 'NONE');
#22 = EDGE_LOOP ( 'NONE', ( #82 ) ) ;
#23 = VERTEX_POINT ( 'NONE', #103 ) ;
#24 = CIRCLE ( 'NONE', #231, 0.1377952755905511900 ) ;
#25 = ORIENTED_EDGE ( 'NONE', *, *, #140, .T. ) ;
#26 = DIRECTION ( 'NONE',  ( 0.0000000000000000000, 0.0000000000000000000, -1.000000000000000000 ) ) ;
#27 = FILL_AREA_STYLE ('',( #95 ) ) ;
#28 = AXIS2_PLACEMENT_3D ( 'NONE', #223, #184, #75 ) ;
#29 =( LENGTH_UNIT ( ) NAMED_UNIT ( * ) SI_UNIT ( $, .METRE. ) );
#30 = CARTESIAN_POINT ( 'NONE',  ( 0.0000000000000000000, -2.165354330708661600, 0.0000000000000000000 ) ) ;
#31 = CONICAL_SURFACE ( 'NONE', #64, 0.1574803149569060100, 0.7853981633974482800 ) ;
#32 = EDGE_CURVE ( 'NONE', #111, #111, #53, .T. ) ;
#33 = CLOSED_SHELL ( 'NONE', ( #124, #105, #1 ) ) ;
#34 = ORIENTED_EDGE ( 'NONE', *, *, #70, .T. ) ;
#35 = DIMENSIONAL_EXPONENTS ( 1.000000000000000000, 0.0000000000000000000, 0.0000000000000000000, 0.0000000000000000000, 0.0000000000000000000, 0.0000000000000000000, 0.0000000000000000000 ) ;
#36 = FACE_BOUND ( 'NONE', #109, .T. ) ;
#37 = STYLED_ITEM ( 'NONE', ( #122 ), #108 ) ;
#38 = DIRECTION ( 'NONE',  ( 0.0000000000000000000, 0.0000000000000000000, -1.000000000000000000 ) ) ;
#39 = MECHANICAL_DESIGN_GEOMETRIC_PRESENTATION_REPRESENTATION (  '', ( #200 ), #193 ) ;
#40 = VERTEX_POINT ( 'NONE', #11 ) ;
#41 = FACE_OUTER_BOUND ( 'NONE', #65, .T. ) ;
#42 =( NAMED_UNIT ( * ) SI_UNIT ( $, .STERADIAN. ) SOLID_ANGLE_UNIT ( ) );
#43 = DIRECTION ( 'NONE',  ( 0.0000000000000000000, -1.000000000000000000, 0.0000000000000000000 ) ) ;
#44 = SURFACE_SIDE_STYLE ('',( #148 ) ) ;
#45 = DIRECTION ( 'NONE',  ( 0.0000000000000000000, -1.000000000000000000, 0.0000000000000000000 ) ) ;
#46 = FILL_AREA_STYLE ('',( #10 ) ) ;
#47 = EDGE_CURVE ( 'NONE', #40, #40, #175, .T. ) ;
#48 = PRESENTATION_LAYER_ASSIGNMENT (  '', '', ( #37 ) ) ;
#49 = ADVANCED_FACE ( 'NONE', ( #123, #36 ), #31, .T. ) ;
#50 = VERTEX_POINT ( 'NONE', #81 ) ;
#51 = CARTESIAN_POINT ( 'NONE',  ( 0.0000000000000000000, -1.751968503940337900, 0.0000000000000000000 ) ) ;
#52 = DIRECTION ( 'NONE',  ( 0.0000000000000000000, -1.000000000000000000, 0.0000000000000000000 ) ) ;
#53 = CIRCLE ( 'NONE', #28, 0.1574803149606299200 ) ;
#54 = CARTESIAN_POINT ( 'NONE',  ( 0.0000000000000000000, -2.559055118110236600, 0.0000000000000000000 ) ) ;
#55 = DIRECTION ( 'NONE',  ( 0.0000000000000000000, -0.0000000000000000000, -1.000000000000000000 ) ) ;
#56 = DIRECTION ( 'NONE',  ( 0.0000000000000000000, 0.0000000000000000000, 1.000000000000000000 ) ) ;
#57 = ORIENTED_EDGE ( 'NONE', *, *, #221, .T. ) ;
#58 = CARTESIAN_POINT ( 'NONE',  ( 0.0000000000000000000, -0.1574803149591439400, 0.0000000000000000000 ) ) ;
#59 = PRODUCT_DEFINITION_FORMATION_WITH_SPECIFIED_SOURCE ( 'ANY', '', #139, .NOT_KNOWN. ) ;
#60 = DIRECTION ( 'NONE',  ( 0.0000000000000000000, 0.0000000000000000000, -1.000000000000000000 ) ) ;
#61 = CARTESIAN_POINT ( 'NONE',  ( 0.0000000000000000000, -0.1771653543307086800, 0.0000000000000000000 ) ) ;
#62 = COLOUR_RGB ( '',0.7921568627450980000, 0.8196078431372548800, 0.9333333333333333500 ) ;
#63 = DIRECTION ( 'NONE',  ( 1.000000000000000000, 0.0000000000000000000, 0.0000000000000000000 ) ) ;
#64 = AXIS2_PLACEMENT_3D ( 'NONE', #207, #90, #149 ) ;
#65 = EDGE_LOOP ( 'NONE', ( #164 ) ) ;
#66 = UNCERTAINTY_MEASURE_WITH_UNIT (LENGTH_MEASURE( 1.000000000000000100E-005 ), #195, 'distance_accuracy_value', 'NONE');
#67 = FILL_AREA_STYLE_COLOUR ( '', #219 ) ;
#68 = EDGE_LOOP ( 'NONE', ( #209 ) ) ;
#69 = DIMENSIONAL_EXPONENTS ( 1.000000000000000000, 0.0000000000000000000, 0.0000000000000000000, 0.0000000000000000000, 0.0000000000000000000, 0.0000000000000000000, 0.0000000000000000000 ) ;
#70 = EDGE_CURVE ( 'NONE', #76, #76, #225, .T. ) ;
#71 = LENGTH_MEASURE_WITH_UNIT ( LENGTH_MEASURE( 0.02539999999999999900 ), #102 );
#72 = ORIENTED_EDGE ( 'NONE', *, *, #154, .T. ) ;
#73 = PRODUCT_RELATED_PRODUCT_CATEGORY ( 'part', '', ( #139 ) ) ;
#74 = ORIENTED_EDGE ( 'NONE', *, *, #32, .F. ) ;
#75 = DIRECTION ( 'NONE',  ( 0.0000000000000000000, 0.0000000000000000000, -1.000000000000000000 ) ) ;
#76 = VERTEX_POINT ( 'NONE', #189 ) ;
#77 = EDGE_LOOP ( 'NONE', ( #74 ) ) ;
#78 = CARTESIAN_POINT ( 'NONE',  ( -0.1033464566929134000, -1.771653543307086600, 0.0000000000000000000 ) ) ;
#79 = DIRECTION ( 'NONE',  ( 0.0000000000000000000, -1.000000000000000000, 0.0000000000000000000 ) ) ;
#80 =( NAMED_UNIT ( * ) PLANE_ANGLE_UNIT ( ) SI_UNIT ( $, .RADIAN. ) );
#81 = CARTESIAN_POINT ( 'NONE',  ( 0.0000000000000000000, 0.0000000000000000000, -0.1377952755905511900 ) ) ;
#82 = ORIENTED_EDGE ( 'NONE', *, *, #70, .F. ) ;
#83 = SURFACE_STYLE_USAGE ( .BOTH. , #155 ) ;
#84 =( CONVERSION_BASED_UNIT ( 'INCH', #97 ) LENGTH_UNIT ( ) NAMED_UNIT ( #2 ) );
#85 = SHAPE_DEFINITION_REPRESENTATION ( #143, #108 ) ;
#86 =( NAMED_UNIT ( * ) SI_UNIT ( $, .STERADIAN. ) SOLID_ANGLE_UNIT ( ) );
#87 = EDGE_CURVE ( 'NONE', #50, #50, #24, .T. ) ;
#88 = CYLINDRICAL_SURFACE ( 'NONE', #126, 0.1377952755905511900 ) ;
#89 = FACE_OUTER_BOUND ( 'NONE', #22, .T. ) ;
#90 = DIRECTION ( 'NONE',  ( 0.0000000000000000000, -1.000000000000000000, 0.0000000000000000000 ) ) ;
#91 = SURFACE_STYLE_FILL_AREA ( #27 ) ;
#92 = DIRECTION ( 'NONE',  ( -0.0000000000000000000, 1.000000000000000000, -0.0000000000000000000 ) ) ;
#93 = EDGE_LOOP ( 'NONE', ( #104 ) ) ;
#94 = DIRECTION ( 'NONE',  ( 0.0000000000000000000, 0.0000000000000000000, -1.000000000000000000 ) ) ;
#95 = FILL_AREA_STYLE_COLOUR ( '', #62 ) ;
#96 = DIRECTION ( 'NONE',  ( 0.0000000000000000000, 0.0000000000000000000, 1.000000000000000000 ) ) ;
#97 = LENGTH_MEASURE_WITH_UNIT ( LENGTH_MEASURE( 0.02539999999999999900 ), #131 );
#98 = DIRECTION ( 'NONE',  ( 0.0000000000000000000, 1.000000000000000000, 0.0000000000000000000 ) ) ;
#99 = UNCERTAINTY_MEASURE_WITH_UNIT (LENGTH_MEASURE( 1.000000000000000100E-005 ), #224, 'distance_accuracy_value', 'NONE');
#100 = CARTESIAN_POINT ( 'NONE',  ( 0.0000000000000000000, -0.1771653543307086800, -0.1574803149606299200 ) ) ;
#101 = PRESENTATION_STYLE_ASSIGNMENT (( #114 ) ) ;
#102 =( LENGTH_UNIT ( ) NAMED_UNIT ( * ) SI_UNIT ( $, .METRE. ) );
#103 = CARTESIAN_POINT ( 'NONE',  ( 0.0000000000000000000, -1.771653543307713200, 0.1377952755917686300 ) ) ;
#104 = ORIENTED_EDGE ( 'NONE', *, *, #140, .F. ) ;
#105 = ADVANCED_FACE ( 'NONE', ( #194 ), #203, .T. ) ;
#106 = MECHANICAL_DESIGN_GEOMETRIC_PRESENTATION_REPRESENTATION (  '', ( #37 ), #119 ) ;
#107 = CIRCLE ( 'NONE', #18, 0.1574803149606299200 ) ;
#108 = ADVANCED_BREP_SHAPE_REPRESENTATION ( 'DW-AD-714-M8', ( #159, #152, #150 ), #8 ) ;
#109 = EDGE_LOOP ( 'NONE', ( #72 ) ) ;
#110 = PLANE ( 'NONE',  #179 ) ;
#111 = VERTEX_POINT ( 'NONE', #132 ) ;
#112 = COLOUR_RGB ( '',0.7921568627450980000, 0.8196078431372548800, 0.9333333333333333500 ) ;
#113 = AXIS2_PLACEMENT_3D ( 'NONE', #229, #227, #26 ) ;
#114 = SURFACE_STYLE_USAGE ( .BOTH. , #44 ) ;
#115 = DIRECTION ( 'NONE',  ( 0.0000000000000000000, -0.0000000000000000000, -1.000000000000000000 ) ) ;
#116 = CLOSED_SHELL ( 'NONE', ( #125, #4, #49, #199, #161, #163 ) ) ;
#117 = UNCERTAINTY_MEASURE_WITH_UNIT (LENGTH_MEASURE( 1.000000000000000100E-005 ), #133, 'distance_accuracy_value', 'NONE');
#118 = CARTESIAN_POINT ( 'NONE',  ( -0.06889763779527559300, 0.0000000000000000000, 0.0000000000000000000 ) ) ;
#119 =( GEOMETRIC_REPRESENTATION_CONTEXT ( 3 ) GLOBAL_UNCERTAINTY_ASSIGNED_CONTEXT ( ( #66 ) ) GLOBAL_UNIT_ASSIGNED_CONTEXT ( ( #195, #214, #86 ) ) REPRESENTATION_CONTEXT ( 'NONE', 'WORKASPACE' ) );
#120 = EDGE_LOOP ( 'NONE', ( #57 ) ) ;
#121 = APPLICATION_PROTOCOL_DEFINITION ( 'draft international standard', 'automotive_design', 1998, #235 ) ;
#122 = PRESENTATION_STYLE_ASSIGNMENT (( #16 ) ) ;
#123 = FACE_OUTER_BOUND ( 'NONE', #93, .T. ) ;
#124 = ADVANCED_FACE ( 'NONE', ( #157, #41 ), #205, .T. ) ;
#125 = ADVANCED_FACE ( 'NONE', ( #183, #218 ), #162, .T. ) ;
#126 = AXIS2_PLACEMENT_3D ( 'NONE', #191, #43, #60 ) ;
#127 = EDGE_LOOP ( 'NONE', ( #171 ) ) ;
#128 = VERTEX_POINT ( 'NONE', #180 ) ;
#129 = PRODUCT_DEFINITION ( 'UNKNOWN', '', #59, #19 ) ;
#130 = VERTEX_POINT ( 'NONE', #100 ) ;
#131 =( LENGTH_UNIT ( ) NAMED_UNIT ( * ) SI_UNIT ( $, .METRE. ) );
#132 = CARTESIAN_POINT ( 'NONE',  ( 0.0000000000000000000, -1.751968503937007900, -0.1574803149606299200 ) ) ;
#133 =( CONVERSION_BASED_UNIT ( 'INCH', #146 ) LENGTH_UNIT ( ) NAMED_UNIT ( #144 ) );
#134 = DIRECTION ( 'NONE',  ( 0.0000000000000000000, 0.0000000000000000000, -1.000000000000000000 ) ) ;
#135 = DIRECTION ( 'NONE',  ( 0.0000000000000000000, -1.000000000000000000, 0.0000000000000000000 ) ) ;
#136 = FILL_AREA_STYLE ('',( #67 ) ) ;
#137 = ORIENTED_EDGE ( 'NONE', *, *, #32, .T. ) ;
#138 = AXIS2_PLACEMENT_3D ( 'NONE', #78, #226, #115 ) ;
#139 = PRODUCT ( 'DW-AD-714-M8', 'DW-AD-714-M8', '', ( #234 ) ) ;
#140 = EDGE_CURVE ( 'NONE', #130, #130, #107, .T. ) ;
#141 = FACE_OUTER_BOUND ( 'NONE', #68, .T. ) ;
#142 = ORIENTED_EDGE ( 'NONE', *, *, #47, .F. ) ;
#143 = PRODUCT_DEFINITION_SHAPE ( 'NONE', 'NONE',  #129 ) ;
#144 = DIMENSIONAL_EXPONENTS ( 1.000000000000000000, 0.0000000000000000000, 0.0000000000000000000, 0.0000000000000000000, 0.0000000000000000000, 0.0000000000000000000, 0.0000000000000000000 ) ;
#145 = CARTESIAN_POINT ( 'NONE',  ( 0.0000000000000000000, 0.0000000000000000000, 0.0000000000000000000 ) ) ;
#146 = LENGTH_MEASURE_WITH_UNIT ( LENGTH_MEASURE( 0.02539999999999999900 ), #29 );
#147 = DIRECTION ( 'NONE',  ( 0.0000000000000000000, 1.000000000000000000, 0.0000000000000000000 ) ) ;
#148 = SURFACE_STYLE_FILL_AREA ( #46 ) ;
#149 = DIRECTION ( 'NONE',  ( 0.0000000000000000000, 0.0000000000000000000, -1.000000000000000000 ) ) ;
#150 = AXIS2_PLACEMENT_3D ( 'NONE', #14, #160, #63 ) ;
#151 =( LENGTH_UNIT ( ) NAMED_UNIT ( * ) SI_UNIT ( $, .METRE. ) );
#152 = MANIFOLD_SOLID_BREP ( 'Imported3', #33 ) ;
#153 =( NAMED_UNIT ( * ) SI_UNIT ( $, .STERADIAN. ) SOLID_ANGLE_UNIT ( ) );
#154 = EDGE_CURVE ( 'NONE', #128, #128, #198, .T. ) ;
#155 = SURFACE_SIDE_STYLE ('',( #91 ) ) ;
#156 = FACE_OUTER_BOUND ( 'NONE', #20, .T. ) ;
#157 = FACE_OUTER_BOUND ( 'NONE', #216, .T. ) ;
#158 = AXIS2_PLACEMENT_3D ( 'NONE', #51, #147, #169 ) ;
#159 = MANIFOLD_SOLID_BREP ( 'Imported2', #116 ) ;
#160 = DIRECTION ( 'NONE',  ( 0.0000000000000000000, 0.0000000000000000000, 1.000000000000000000 ) ) ;
#161 = ADVANCED_FACE ( 'NONE', ( #156, #15 ), #88, .T. ) ;
#162 = CYLINDRICAL_SURFACE ( 'NONE', #113, 0.1574803149606299200 ) ;
#163 = ADVANCED_FACE ( 'NONE', ( #141 ), #170, .T. ) ;
#164 = ORIENTED_EDGE ( 'NONE', *, *, #47, .T. ) ;
#165 = MECHANICAL_DESIGN_GEOMETRIC_PRESENTATION_REPRESENTATION (  '', ( #206 ), #215 ) ;
#166 = CARTESIAN_POINT ( 'NONE',  ( 0.0000000000000000000, -1.771653543307086600, 0.0000000000000000000 ) ) ;
#167 = EDGE_LOOP ( 'NONE', ( #137 ) ) ;
#168 = AXIS2_PLACEMENT_3D ( 'NONE', #222, #79, #208 ) ;
#169 = DIRECTION ( 'NONE',  ( 0.0000000000000000000, 0.0000000000000000000, 1.000000000000000000 ) ) ;
#170 = PLANE ( 'NONE',  #217 ) ;
#171 = ORIENTED_EDGE ( 'NONE', *, *, #87, .T. ) ;
#172 = DIRECTION ( 'NONE',  ( 0.0000000000000000000, -1.000000000000000000, 0.0000000000000000000 ) ) ;
#173 =( NAMED_UNIT ( * ) PLANE_ANGLE_UNIT ( ) SI_UNIT ( $, .RADIAN. ) );
#174 = SURFACE_STYLE_FILL_AREA ( #136 ) ;
#175 = CIRCLE ( 'NONE', #202, 0.06889763779527559300 ) ;
#176 = DIRECTION ( 'NONE',  ( -1.000000000000000000, 0.0000000000000000000, 0.0000000000000000000 ) ) ;
#177 =( NAMED_UNIT ( * ) PLANE_ANGLE_UNIT ( ) SI_UNIT ( $, .RADIAN. ) );
#178 = EDGE_LOOP ( 'NONE', ( #3 ) ) ;
#179 = AXIS2_PLACEMENT_3D ( 'NONE', #186, #6, #55 ) ;
#180 = CARTESIAN_POINT ( 'NONE',  ( -0.1377952755895306700, -0.1574803149591439400, 0.0000000000000000000 ) ) ;
#181 = PRESENTATION_LAYER_ASSIGNMENT (  '', '', ( #200 ) ) ;
#182 = CIRCLE ( 'NONE', #228, 0.1377952755917686300 ) ;
#183 = FACE_OUTER_BOUND ( 'NONE', #167, .T. ) ;
#184 = DIRECTION ( 'NONE',  ( -0.0000000000000000000, 1.000000000000000000, -0.0000000000000000000 ) ) ;
#185 = DIRECTION ( 'NONE',  ( 0.0000000000000000000, 0.0000000000000000000, -1.000000000000000000 ) ) ;
#186 = CARTESIAN_POINT ( 'NONE',  ( 0.0000000000000000000, -1.771653543307086600, 0.0000000000000000000 ) ) ;
#187 = FACE_OUTER_BOUND ( 'NONE', #77, .T. ) ;
#188 = PLANE ( 'NONE',  #138 ) ;
#189 = CARTESIAN_POINT ( 'NONE',  ( 0.0000000000000000000, -1.771653543307086600, -0.06889763779527559300 ) ) ;
#190 = AXIS2_PLACEMENT_3D ( 'NONE', #58, #135, #176 ) ;
#191 = CARTESIAN_POINT ( 'NONE',  ( 0.0000000000000000000, -0.07874015748031496000, 0.0000000000000000000 ) ) ;
#192 = DIRECTION ( 'NONE',  ( 0.0000000000000000000, 0.0000000000000000000, -1.000000000000000000 ) ) ;
#193 =( GEOMETRIC_REPRESENTATION_CONTEXT ( 3 ) GLOBAL_UNCERTAINTY_ASSIGNED_CONTEXT ( ( #117 ) ) GLOBAL_UNIT_ASSIGNED_CONTEXT ( ( #133, #173, #153 ) ) REPRESENTATION_CONTEXT ( 'NONE', 'WORKASPACE' ) );
#194 = FACE_OUTER_BOUND ( 'NONE', #213, .T. ) ;
#195 =( CONVERSION_BASED_UNIT ( 'INCH', #71 ) LENGTH_UNIT ( ) NAMED_UNIT ( #35 ) );
#196 = SURFACE_SIDE_STYLE ('',( #174 ) ) ;
#197 = LENGTH_MEASURE_WITH_UNIT ( LENGTH_MEASURE( 0.02539999999999999900 ), #151 );
#198 = CIRCLE ( 'NONE', #190, 0.1377952755895306700 ) ;
#199 = ADVANCED_FACE ( 'NONE', ( #233 ), #188, .T. ) ;
#200 = STYLED_ITEM ( 'NONE', ( #101 ), #152 ) ;
#201 = ORIENTED_EDGE ( 'NONE', *, *, #154, .F. ) ;
#202 = AXIS2_PLACEMENT_3D ( 'NONE', #54, #92, #38 ) ;
#203 = PLANE ( 'NONE',  #168 ) ;
#204 = PRESENTATION_STYLE_ASSIGNMENT (( #83 ) ) ;
#205 = CYLINDRICAL_SURFACE ( 'NONE', #5, 0.06889763779527559300 ) ;
#206 = STYLED_ITEM ( 'NONE', ( #204 ), #159 ) ;
#207 = CARTESIAN_POINT ( 'NONE',  ( 0.0000000000000000000, -0.1771653543265192500, 0.0000000000000000000 ) ) ;
#208 = DIRECTION ( 'NONE',  ( 0.0000000000000000000, -0.0000000000000000000, -1.000000000000000000 ) ) ;
#209 = ORIENTED_EDGE ( 'NONE', *, *, #87, .F. ) ;
#210 = APPLICATION_PROTOCOL_DEFINITION ( 'draft international standard', 'automotive_design', 1998, #211 ) ;
#211 = APPLICATION_CONTEXT ( 'automotive_design' ) ;
#212 = PRESENTATION_LAYER_ASSIGNMENT (  '', '', ( #206 ) ) ;
#213 = EDGE_LOOP ( 'NONE', ( #142 ) ) ;
#214 =( NAMED_UNIT ( * ) PLANE_ANGLE_UNIT ( ) SI_UNIT ( $, .RADIAN. ) );
#215 =( GEOMETRIC_REPRESENTATION_CONTEXT ( 3 ) GLOBAL_UNCERTAINTY_ASSIGNED_CONTEXT ( ( #99 ) ) GLOBAL_UNIT_ASSIGNED_CONTEXT ( ( #224, #80, #42 ) ) REPRESENTATION_CONTEXT ( 'NONE', 'WORKASPACE' ) );
#216 = EDGE_LOOP ( 'NONE', ( #34 ) ) ;
#217 = AXIS2_PLACEMENT_3D ( 'NONE', #118, #230, #56 ) ;
#218 = FACE_OUTER_BOUND ( 'NONE', #7, .T. ) ;
#219 = COLOUR_RGB ( '',0.7921568627450980000, 0.8196078431372548800, 0.9333333333333333500 ) ;
#220 = FACE_BOUND ( 'NONE', #120, .T. ) ;
#221 = EDGE_CURVE ( 'NONE', #23, #23, #182, .T. ) ;
#222 = CARTESIAN_POINT ( 'NONE',  ( -0.03444881889763779700, -2.559055118110236600, 0.0000000000000000000 ) ) ;
#223 = CARTESIAN_POINT ( 'NONE',  ( 0.0000000000000000000, -1.751968503937007900, 0.0000000000000000000 ) ) ;
#224 =( CONVERSION_BASED_UNIT ( 'INCH', #197 ) LENGTH_UNIT ( ) NAMED_UNIT ( #69 ) );
#225 = CIRCLE ( 'NONE', #13, 0.06889763779527559300 ) ;
#226 = DIRECTION ( 'NONE',  ( 0.0000000000000000000, -1.000000000000000000, 0.0000000000000000000 ) ) ;
#227 = DIRECTION ( 'NONE',  ( 0.0000000000000000000, -1.000000000000000000, 0.0000000000000000000 ) ) ;
#228 = AXIS2_PLACEMENT_3D ( 'NONE', #9, #98, #96 ) ;
#229 = CARTESIAN_POINT ( 'NONE',  ( 0.0000000000000000000, -0.9645669291338583300, 0.0000000000000000000 ) ) ;
#230 = DIRECTION ( 'NONE',  ( 0.0000000000000000000, 1.000000000000000000, -0.0000000000000000000 ) ) ;
#231 = AXIS2_PLACEMENT_3D ( 'NONE', #145, #172, #94 ) ;
#232 =( NAMED_UNIT ( * ) SI_UNIT ( $, .STERADIAN. ) SOLID_ANGLE_UNIT ( ) );
#233 = FACE_OUTER_BOUND ( 'NONE', #178, .T. ) ;
#234 = PRODUCT_CONTEXT ( 'NONE', #235, 'mechanical' ) ;
#235 = APPLICATION_CONTEXT ( 'automotive_design' ) ;
ENDSEC;
END-ISO-10303-21;
