ISO-10303-21;
HEADER;
FILE_DESCRIPTION (( 'STEP AP214' ),
    '1' );
FILE_NAME ('E22NS36.step',
    '2018-07-05T19:29:15',
    ( '' ),
    ( '' ),
    'SwSTEP 2.0',
    'SolidWorks 2017',
    '' );
FILE_SCHEMA (( 'AUTOMOTIVE_DESIGN' ));
ENDSEC;

DATA;
#1 = PLANE ( 'NONE',  #127 ) ;
#2 = DIRECTION ( 'NONE',  ( 1.000000000000000000, 0.0000000000000000000, 0.0000000000000000000 ) ) ;
#3 = ORIENTED_EDGE ( 'NONE', *, *, #174, .T. ) ;
#4 = DIRECTION ( 'NONE',  ( 1.000000000000000000, 0.0000000000000000000, -0.0000000000000000000 ) ) ;
#5 = VECTOR ( 'NONE', #150, 1000.000000000000000 ) ;
#6 = CARTESIAN_POINT ( 'NONE',  ( 14.99999999999999800, 22.50000000000000700, -0.6500000000000000200 ) ) ;
#7 = VERTEX_POINT ( 'NONE', #213 ) ;
#8 = ORIENTED_EDGE ( 'NONE', *, *, #19, .T. ) ;
#9 = AXIS2_PLACEMENT_3D ( 'NONE', #179, #381, #84 ) ;
#10 = ORIENTED_EDGE ( 'NONE', *, *, #246, .T. ) ;
#11 = DIRECTION ( 'NONE',  ( 0.0000000000000000000, 0.0000000000000000000, -1.000000000000000000 ) ) ;
#12 = VERTEX_POINT ( 'NONE', #400 ) ;
#13 = EDGE_CURVE ( 'NONE', #334, #76, #162, .T. ) ;
#14 = LINE ( 'NONE', #349, #20 ) ;
#15 = ADVANCED_FACE ( 'NONE', ( #285 ), #101, .F. ) ;
#16 = DIRECTION ( 'NONE',  ( -0.0000000000000000000, -0.0000000000000000000, 1.000000000000000000 ) ) ;
#17 = CARTESIAN_POINT ( 'NONE',  ( 0.0000000000000000000, -7.499999999999998200, -0.6500000000000000200 ) ) ;
#18 = ORIENTED_EDGE ( 'NONE', *, *, #94, .T. ) ;
#19 = EDGE_CURVE ( 'NONE', #259, #254, #235, .T. ) ;
#20 = VECTOR ( 'NONE', #144, 1000.000000000000000 ) ;
#21 = CARTESIAN_POINT ( 'NONE',  ( 0.0000000000000000000, -7.499999999999998200, -0.6500000000000000200 ) ) ;
#22 = SURFACE_STYLE_USAGE ( .BOTH. , #296 ) ;
#23 = PRODUCT_CONTEXT ( 'NONE', #181, 'mechanical' ) ;
#24 = UNCERTAINTY_MEASURE_WITH_UNIT (LENGTH_MEASURE( 1.000000000000000100E-005 ), #92, 'distance_accuracy_value', 'NONE');
#25 =( LENGTH_UNIT ( ) NAMED_UNIT ( * ) SI_UNIT ( .MILLI., .METRE. ) );
#26 = DIRECTION ( 'NONE',  ( 1.000000000000000000, 0.0000000000000000000, 0.0000000000000000000 ) ) ;
#27 = ORIENTED_EDGE ( 'NONE', *, *, #97, .T. ) ;
#28 = DIRECTION ( 'NONE',  ( 1.000000000000000000, 0.0000000000000000000, 0.0000000000000000000 ) ) ;
#29 = STYLED_ITEM ( 'NONE', ( #207 ), #136 ) ;
#30 = LINE ( 'NONE', #327, #49 ) ;
#31 = DIRECTION ( 'NONE',  ( 0.0000000000000000000, 1.000000000000000000, -0.0000000000000000000 ) ) ;
#32 = EDGE_CURVE ( 'NONE', #107, #12, #41, .T. ) ;
#33 = CARTESIAN_POINT ( 'NONE',  ( 14.99999999999999800, -22.49999999999999300, 0.6500000000000000200 ) ) ;
#34 = SURFACE_STYLE_FILL_AREA ( #115 ) ;
#35 = EDGE_CURVE ( 'NONE', #266, #168, #14, .T. ) ;
#36 = CARTESIAN_POINT ( 'NONE',  ( -15.00000000000000200, 22.50000000000000000, -0.6500000000000000200 ) ) ;
#37 = DIRECTION ( 'NONE',  ( -0.0000000000000000000, -0.0000000000000000000, 1.000000000000000000 ) ) ;
#38 = DIRECTION ( 'NONE',  ( -0.0000000000000000000, -1.000000000000000000, -0.0000000000000000000 ) ) ;
#39 = AXIS2_PLACEMENT_3D ( 'NONE', #21, #147, #255 ) ;
#40 = ORIENTED_EDGE ( 'NONE', *, *, #118, .F. ) ;
#41 = LINE ( 'NONE', #353, #366 ) ;
#42 = LINE ( 'NONE', #192, #209 ) ;
#43 = ORIENTED_EDGE ( 'NONE', *, *, #134, .F. ) ;
#44 = LINE ( 'NONE', #195, #395 ) ;
#45 = LINE ( 'NONE', #89, #275 ) ;
#46 = ORIENTED_EDGE ( 'NONE', *, *, #297, .T. ) ;
#47 = EDGE_CURVE ( 'NONE', #248, #254, #384, .T. ) ;
#48 = CARTESIAN_POINT ( 'NONE',  ( -15.00000000000000200, -22.50000000000000000, 0.6500000000000000200 ) ) ;
#49 = VECTOR ( 'NONE', #299, 1000.000000000000000 ) ;
#50 = DIRECTION ( 'NONE',  ( -0.0000000000000000000, -0.0000000000000000000, -1.000000000000000000 ) ) ;
#51 = EDGE_CURVE ( 'NONE', #12, #168, #198, .T. ) ;
#52 = DIRECTION ( 'NONE',  ( 1.000000000000000000, 0.0000000000000000000, 0.0000000000000000000 ) ) ;
#53 = DIRECTION ( 'NONE',  ( 1.000000000000000000, 0.0000000000000000000, 0.0000000000000000000 ) ) ;
#54 = ADVANCED_FACE ( 'NONE', ( #245 ), #125, .F. ) ;
#55 = VERTEX_POINT ( 'NONE', #292 ) ;
#56 = AXIS2_PLACEMENT_3D ( 'NONE', #405, #65, #220 ) ;
#57 = EDGE_LOOP ( 'NONE', ( #171, #273, #278, #99 ) ) ;
#58 = DIRECTION ( 'NONE',  ( -0.0000000000000000000, -0.0000000000000000000, 1.000000000000000000 ) ) ;
#59 = FACE_OUTER_BOUND ( 'NONE', #57, .T. ) ;
#60 = DIRECTION ( 'NONE',  ( 0.0000000000000000000, 0.0000000000000000000, -1.000000000000000000 ) ) ;
#61 = EDGE_LOOP ( 'NONE', ( #337, #321, #40, #202 ) ) ;
#62 = DIRECTION ( 'NONE',  ( 0.0000000000000000000, 0.0000000000000000000, 1.000000000000000000 ) ) ;
#63 = VERTEX_POINT ( 'NONE', #48 ) ;
#64 = ORIENTED_EDGE ( 'NONE', *, *, #315, .F. ) ;
#65 = DIRECTION ( 'NONE',  ( 0.0000000000000000000, -1.000000000000000000, 0.0000000000000000000 ) ) ;
#66 = DIRECTION ( 'NONE',  ( -0.0000000000000000000, -0.0000000000000000000, -1.000000000000000000 ) ) ;
#67 = MECHANICAL_DESIGN_GEOMETRIC_PRESENTATION_REPRESENTATION (  '', ( #336 ), #344 ) ;
#68 = DIRECTION ( 'NONE',  ( 0.0000000000000000000, 1.000000000000000000, 0.0000000000000000000 ) ) ;
#69 = ORIENTED_EDGE ( 'NONE', *, *, #200, .T. ) ;
#70 = ORIENTED_EDGE ( 'NONE', *, *, #35, .T. ) ;
#71 = EDGE_CURVE ( 'NONE', #392, #175, #394, .T. ) ;
#72 = EDGE_CURVE ( 'NONE', #170, #75, #269, .T. ) ;
#73 = ORIENTED_EDGE ( 'NONE', *, *, #167, .T. ) ;
#74 = AXIS2_PLACEMENT_3D ( 'NONE', #233, #339, #333 ) ;
#75 = VERTEX_POINT ( 'NONE', #355 ) ;
#76 = VERTEX_POINT ( 'NONE', #323 ) ;
#77 = CARTESIAN_POINT ( 'NONE',  ( 0.0000000000000000000, -7.499999999999998200, -0.6500000000000000200 ) ) ;
#78 = ADVANCED_FACE ( 'NONE', ( #109 ), #142, .F. ) ;
#79 = CARTESIAN_POINT ( 'NONE',  ( 14.99999999999999800, -22.49999999999999300, 0.6500000000000000200 ) ) ;
#80 = ORIENTED_EDGE ( 'NONE', *, *, #304, .F. ) ;
#81 = DIRECTION ( 'NONE',  ( 1.000000000000000000, 0.0000000000000000000, 0.0000000000000000000 ) ) ;
#82 = ADVANCED_FACE ( 'NONE', ( #223 ), #314, .F. ) ;
#83 = VECTOR ( 'NONE', #180, 1000.000000000000000 ) ;
#84 = DIRECTION ( 'NONE',  ( 1.000000000000000000, 0.0000000000000000000, 0.0000000000000000000 ) ) ;
#85 = CARTESIAN_POINT ( 'NONE',  ( -11.10000000000000000, -7.499999999999996400, -0.6500000000000000200 ) ) ;
#86 = PLANE ( 'NONE',  #268 ) ;
#87 = CARTESIAN_POINT ( 'NONE',  ( 11.10000000000000000, -7.499999999999998200, 0.6500000000000000200 ) ) ;
#88 = EDGE_LOOP ( 'NONE', ( #312, #193, #281, #137 ) ) ;
#89 = CARTESIAN_POINT ( 'NONE',  ( 14.99999999999999800, 22.50000000000000700, 0.6500000000000000200 ) ) ;
#90 = AXIS2_PLACEMENT_3D ( 'NONE', #124, #103, #165 ) ;
#91 = LINE ( 'NONE', #191, #302 ) ;
#92 =( LENGTH_UNIT ( ) NAMED_UNIT ( * ) SI_UNIT ( .MILLI., .METRE. ) );
#93 = ADVANCED_BREP_SHAPE_REPRESENTATION ( 'E22NS36', ( #136, #146 ), #363 ) ;
#94 = EDGE_CURVE ( 'NONE', #334, #266, #362, .T. ) ;
#95 = PLANE ( 'NONE',  #74 ) ;
#96 = ORIENTED_EDGE ( 'NONE', *, *, #309, .T. ) ;
#97 = EDGE_CURVE ( 'NONE', #105, #259, #138, .T. ) ;
#98 = CARTESIAN_POINT ( 'NONE',  ( 1.600000000000000800, -18.48407938791412500, -0.6500000000000000200 ) ) ;
#99 = ORIENTED_EDGE ( 'NONE', *, *, #315, .T. ) ;
#100 = FACE_OUTER_BOUND ( 'NONE', #322, .T. ) ;
#101 = CYLINDRICAL_SURFACE ( 'NONE', #226, 11.10000000000000000 ) ;
#102 = UNCERTAINTY_MEASURE_WITH_UNIT (LENGTH_MEASURE( 1.000000000000000100E-005 ), #25, 'distance_accuracy_value', 'NONE');
#103 = DIRECTION ( 'NONE',  ( 1.000000000000000000, 0.0000000000000000000, 0.0000000000000000000 ) ) ;
#104 = PRESENTATION_LAYER_ASSIGNMENT (  '', '', ( #336 ) ) ;
#105 = VERTEX_POINT ( 'NONE', #256 ) ;
#106 = EDGE_LOOP ( 'NONE', ( #27, #402, #80, #157 ) ) ;
#107 = VERTEX_POINT ( 'NONE', #219 ) ;
#108 = VECTOR ( 'NONE', #370, 1000.000000000000000 ) ;
#109 = FACE_OUTER_BOUND ( 'NONE', #106, .T. ) ;
#110 = EDGE_CURVE ( 'NONE', #175, #7, #42, .T. ) ;
#111 = EDGE_LOOP ( 'NONE', ( #249, #346, #330, #260, #352, #203 ) ) ;
#112 = FACE_OUTER_BOUND ( 'NONE', #398, .T. ) ;
#113 = ADVANCED_FACE ( 'NONE', ( #151, #354 ), #86, .F. ) ;
#114 = CARTESIAN_POINT ( 'NONE',  ( 0.0000000000000000000, -17.79999999999999700, 0.6500000000000000200 ) ) ;
#115 = FILL_AREA_STYLE ('',( #380 ) ) ;
#116 = EDGE_CURVE ( 'NONE', #175, #107, #177, .T. ) ;
#117 = CARTESIAN_POINT ( 'NONE',  ( 14.99999999999999800, -22.49999999999999300, -0.6500000000000000200 ) ) ;
#118 = EDGE_CURVE ( 'NONE', #63, #218, #173, .T. ) ;
#119 = APPLICATION_PROTOCOL_DEFINITION ( 'draft international standard', 'automotive_design', 1998, #181 ) ;
#120 = CARTESIAN_POINT ( 'NONE',  ( 1.600000000000000800, -17.79999999999999700, 0.6500000000000000200 ) ) ;
#121 = ORIENTED_EDGE ( 'NONE', *, *, #378, .F. ) ;
#122 = CARTESIAN_POINT ( 'NONE',  ( 1.600000000000000800, 0.0000000000000000000, -0.6500000000000000200 ) ) ;
#123 = CARTESIAN_POINT ( 'NONE',  ( 0.0000000000000000000, -7.499999999999998200, 0.6500000000000000200 ) ) ;
#124 = CARTESIAN_POINT ( 'NONE',  ( -1.599999999999999400, 0.0000000000000000000, -0.6500000000000000200 ) ) ;
#125 = CYLINDRICAL_SURFACE ( 'NONE', #9, 11.10000000000000000 ) ;
#126 = CARTESIAN_POINT ( 'NONE',  ( 0.0000000000000000000, 0.0000000000000000000, 0.6500000000000000200 ) ) ;
#127 = AXIS2_PLACEMENT_3D ( 'NONE', #263, #197, #11 ) ;
#128 = CARTESIAN_POINT ( 'NONE',  ( 1.600000000000000800, -17.79999999999999700, -0.6500000000000000200 ) ) ;
#129 = EDGE_LOOP ( 'NONE', ( #310, #252, #73, #141 ) ) ;
#130 = CARTESIAN_POINT ( 'NONE',  ( -15.00000000000000200, -22.50000000000000000, -0.6500000000000000200 ) ) ;
#131 = LINE ( 'NONE', #365, #149 ) ;
#132 = VECTOR ( 'NONE', #320, 1000.000000000000000 ) ;
#133 = CARTESIAN_POINT ( 'NONE',  ( 14.99999999999999800, -22.49999999999999300, -0.6500000000000000200 ) ) ;
#134 = EDGE_CURVE ( 'NONE', #340, #168, #91, .T. ) ;
#135 = FACE_OUTER_BOUND ( 'NONE', #239, .T. ) ;
#136 = MANIFOLD_SOLID_BREP ( 'Cut-Extrude1', #158 ) ;
#137 = ORIENTED_EDGE ( 'NONE', *, *, #348, .F. ) ;
#138 = LINE ( 'NONE', #117, #132 ) ;
#139 = PRODUCT ( 'E22NS36', 'E22NS36', '', ( #23 ) ) ;
#140 = ADVANCED_FACE ( 'NONE', ( #112 ), #262, .F. ) ;
#141 = ORIENTED_EDGE ( 'NONE', *, *, #72, .T. ) ;
#142 = PLANE ( 'NONE',  #242 ) ;
#143 = FILL_AREA_STYLE_COLOUR ( '', #343 ) ;
#144 = DIRECTION ( 'NONE',  ( -0.0000000000000000000, -0.0000000000000000000, 1.000000000000000000 ) ) ;
#145 = ADVANCED_FACE ( 'NONE', ( #403 ), #225, .T. ) ;
#146 = AXIS2_PLACEMENT_3D ( 'NONE', #148, #62, #294 ) ;
#147 = DIRECTION ( 'NONE',  ( -0.0000000000000000000, 0.0000000000000000000, 1.000000000000000000 ) ) ;
#148 = CARTESIAN_POINT ( 'NONE',  ( 0.0000000000000000000, 0.0000000000000000000, 0.0000000000000000000 ) ) ;
#149 = VECTOR ( 'NONE', #303, 1000.000000000000000 ) ;
#150 = DIRECTION ( 'NONE',  ( 0.0000000000000000000, 1.000000000000000000, -0.0000000000000000000 ) ) ;
#151 = FACE_OUTER_BOUND ( 'NONE', #88, .T. ) ;
#152 = EDGE_CURVE ( 'NONE', #75, #7, #379, .T. ) ;
#153 = DIRECTION ( 'NONE',  ( 0.0000000000000000000, -0.0000000000000000000, 1.000000000000000000 ) ) ;
#154 = DIRECTION ( 'NONE',  ( -0.0000000000000000000, -0.0000000000000000000, -1.000000000000000000 ) ) ;
#155 =( NAMED_UNIT ( * ) PLANE_ANGLE_UNIT ( ) SI_UNIT ( $, .RADIAN. ) );
#156 = DIRECTION ( 'NONE',  ( -2.312964634635743000E-016, 1.000000000000000000, 0.0000000000000000000 ) ) ;
#157 = ORIENTED_EDGE ( 'NONE', *, *, #185, .T. ) ;
#158 = CLOSED_SHELL ( 'NONE', ( #15, #54, #211, #113, #351, #184, #78, #316, #145, #140, #324, #82 ) ) ;
#159 = LINE ( 'NONE', #229, #290 ) ;
#160 = AXIS2_PLACEMENT_3D ( 'NONE', #126, #201, #4 ) ;
#161 = PLANE ( 'NONE',  #90 ) ;
#162 = CIRCLE ( 'NONE', #39, 11.10000000000000000 ) ;
#163 = DIRECTION ( 'NONE',  ( -1.000000000000000000, -2.312964634635743000E-016, 0.0000000000000000000 ) ) ;
#164 = CIRCLE ( 'NONE', #328, 11.10000000000000000 ) ;
#165 = DIRECTION ( 'NONE',  ( 0.0000000000000000000, 0.0000000000000000000, -1.000000000000000000 ) ) ;
#166 = PLANE ( 'NONE',  #160 ) ;
#167 = EDGE_CURVE ( 'NONE', #76, #170, #30, .T. ) ;
#168 = VERTEX_POINT ( 'NONE', #120 ) ;
#169 = ORIENTED_EDGE ( 'NONE', *, *, #13, .F. ) ;
#170 = VERTEX_POINT ( 'NONE', #87 ) ;
#171 = ORIENTED_EDGE ( 'NONE', *, *, #286, .T. ) ;
#172 = SHAPE_DEFINITION_REPRESENTATION ( #247, #93 ) ;
#173 = LINE ( 'NONE', #383, #372 ) ;
#174 = EDGE_CURVE ( 'NONE', #55, #259, #45, .T. ) ;
#175 = VERTEX_POINT ( 'NONE', #217 ) ;
#176 = EDGE_LOOP ( 'NONE', ( #8, #194, #64, #3 ) ) ;
#177 = LINE ( 'NONE', #326, #5 ) ;
#178 = DIRECTION ( 'NONE',  ( -1.000000000000000000, 0.0000000000000000000, 0.0000000000000000000 ) ) ;
#179 = CARTESIAN_POINT ( 'NONE',  ( 0.0000000000000000000, -7.499999999999998200, -0.6500000000000000200 ) ) ;
#180 = DIRECTION ( 'NONE',  ( -1.000000000000000000, -2.312964634635743000E-016, 0.0000000000000000000 ) ) ;
#181 = APPLICATION_CONTEXT ( 'automotive_design' ) ;
#182 = ORIENTED_EDGE ( 'NONE', *, *, #72, .F. ) ;
#183 = CARTESIAN_POINT ( 'NONE',  ( 14.99999999999999800, 22.50000000000000700, -0.6500000000000000200 ) ) ;
#184 = ADVANCED_FACE ( 'NONE', ( #338 ), #356, .F. ) ;
#185 = EDGE_CURVE ( 'NONE', #218, #105, #280, .T. ) ;
#186 = VECTOR ( 'NONE', #37, 1000.000000000000000 ) ;
#187 = DIRECTION ( 'NONE',  ( 1.000000000000000000, 0.0000000000000000000, 0.0000000000000000000 ) ) ;
#188 = CARTESIAN_POINT ( 'NONE',  ( 1.600000000000000800, 0.0000000000000000000, -0.6500000000000000200 ) ) ;
#189 =( NAMED_UNIT ( * ) SI_UNIT ( $, .STERADIAN. ) SOLID_ANGLE_UNIT ( ) );
#190 = DIRECTION ( 'NONE',  ( 0.0000000000000000000, 1.000000000000000000, -0.0000000000000000000 ) ) ;
#191 = CARTESIAN_POINT ( 'NONE',  ( 1.600000000000000800, 0.0000000000000000000, 0.6500000000000000200 ) ) ;
#192 = CARTESIAN_POINT ( 'NONE',  ( -1.599999999999999400, -18.48407938791412500, -0.6500000000000000200 ) ) ;
#193 = ORIENTED_EDGE ( 'NONE', *, *, #19, .F. ) ;
#194 = ORIENTED_EDGE ( 'NONE', *, *, #47, .F. ) ;
#195 = CARTESIAN_POINT ( 'NONE',  ( 0.0000000000000000000, -17.79999999999999700, -0.6500000000000000200 ) ) ;
#196 = ORIENTED_EDGE ( 'NONE', *, *, #286, .F. ) ;
#197 = DIRECTION ( 'NONE',  ( 1.000000000000000000, 0.0000000000000000000, 0.0000000000000000000 ) ) ;
#198 = LINE ( 'NONE', #114, #204 ) ;
#199 = CARTESIAN_POINT ( 'NONE',  ( 1.600000000000000800, -18.48407938791412500, -0.6500000000000000200 ) ) ;
#200 = EDGE_CURVE ( 'NONE', #340, #170, #308, .T. ) ;
#201 = DIRECTION ( 'NONE',  ( 0.0000000000000000000, -0.0000000000000000000, 1.000000000000000000 ) ) ;
#202 = ORIENTED_EDGE ( 'NONE', *, *, #378, .T. ) ;
#203 = ORIENTED_EDGE ( 'NONE', *, *, #407, .T. ) ;
#204 = VECTOR ( 'NONE', #215, 1000.000000000000000 ) ;
#205 = AXIS2_PLACEMENT_3D ( 'NONE', #318, #210, #187 ) ;
#206 = PRODUCT_RELATED_PRODUCT_CATEGORY ( 'part', '', ( #139 ) ) ;
#207 = PRESENTATION_STYLE_ASSIGNMENT (( #22 ) ) ;
#208 = ORIENTED_EDGE ( 'NONE', *, *, #110, .F. ) ;
#209 = VECTOR ( 'NONE', #58, 1000.000000000000000 ) ;
#210 = DIRECTION ( 'NONE',  ( -0.0000000000000000000, 0.0000000000000000000, 1.000000000000000000 ) ) ;
#211 = ADVANCED_FACE ( 'NONE', ( #59, #298 ), #166, .T. ) ;
#212 = ORIENTED_EDGE ( 'NONE', *, *, #71, .F. ) ;
#213 = CARTESIAN_POINT ( 'NONE',  ( -1.599999999999999400, -18.48407938791412500, 0.6500000000000000200 ) ) ;
#214 = VECTOR ( 'NONE', #190, 1000.000000000000000 ) ;
#215 = DIRECTION ( 'NONE',  ( 1.000000000000000000, 0.0000000000000000000, 0.0000000000000000000 ) ) ;
#216 = AXIS2_PLACEMENT_3D ( 'NONE', #123, #359, #28 ) ;
#217 = CARTESIAN_POINT ( 'NONE',  ( -1.600000000000000300, -18.48407938791412500, -0.6500000000000000200 ) ) ;
#218 = VERTEX_POINT ( 'NONE', #33 ) ;
#219 = CARTESIAN_POINT ( 'NONE',  ( -1.599999999999999400, -17.79999999999999700, -0.6500000000000000200 ) ) ;
#220 = DIRECTION ( 'NONE',  ( 0.0000000000000000000, -0.0000000000000000000, -1.000000000000000000 ) ) ;
#221 = LINE ( 'NONE', #231, #390 ) ;
#222 = EDGE_CURVE ( 'NONE', #392, #75, #291, .T. ) ;
#223 = FACE_OUTER_BOUND ( 'NONE', #369, .T. ) ;
#224 = CARTESIAN_POINT ( 'NONE',  ( -15.00000000000000200, -22.50000000000000000, 0.6500000000000000200 ) ) ;
#225 = PLANE ( 'NONE',  #307 ) ;
#226 = AXIS2_PLACEMENT_3D ( 'NONE', #77, #289, #53 ) ;
#227 = ORIENTED_EDGE ( 'NONE', *, *, #51, .F. ) ;
#228 = DIRECTION ( 'NONE',  ( -0.0000000000000000000, 0.0000000000000000000, 1.000000000000000000 ) ) ;
#229 = CARTESIAN_POINT ( 'NONE',  ( -15.00000000000000200, -22.50000000000000000, -0.6500000000000000200 ) ) ;
#230 = EDGE_LOOP ( 'NONE', ( #212, #361, #371, #208 ) ) ;
#231 = CARTESIAN_POINT ( 'NONE',  ( 14.99999999999999800, -22.49999999999999300, 0.6500000000000000200 ) ) ;
#232 = ORIENTED_EDGE ( 'NONE', *, *, #167, .F. ) ;
#233 = CARTESIAN_POINT ( 'NONE',  ( 14.99999999999999800, 22.50000000000000700, 0.6500000000000000200 ) ) ;
#234 = LINE ( 'NONE', #224, #341 ) ;
#235 = LINE ( 'NONE', #183, #83 ) ;
#236 = CARTESIAN_POINT ( 'NONE',  ( -11.10000000000000000, -7.499999999999996400, -0.6500000000000000200 ) ) ;
#237 = AXIS2_PLACEMENT_3D ( 'NONE', #251, #350, #81 ) ;
#238 = ORIENTED_EDGE ( 'NONE', *, *, #51, .T. ) ;
#239 = EDGE_LOOP ( 'NONE', ( #10, #121, #196, #387 ) ) ;
#240 = LINE ( 'NONE', #133, #108 ) ;
#241 = ORIENTED_EDGE ( 'NONE', *, *, #152, .F. ) ;
#242 = AXIS2_PLACEMENT_3D ( 'NONE', #79, #178, #287 ) ;
#243 =( NAMED_UNIT ( * ) PLANE_ANGLE_UNIT ( ) SI_UNIT ( $, .RADIAN. ) );
#244 = LINE ( 'NONE', #306, #364 ) ;
#245 = FACE_OUTER_BOUND ( 'NONE', #129, .T. ) ;
#246 = EDGE_CURVE ( 'NONE', #254, #283, #159, .T. ) ;
#247 = PRODUCT_DEFINITION_SHAPE ( 'NONE', 'NONE',  #317 ) ;
#248 = VERTEX_POINT ( 'NONE', #267 ) ;
#249 = ORIENTED_EDGE ( 'NONE', *, *, #94, .F. ) ;
#250 = MECHANICAL_DESIGN_GEOMETRIC_PRESENTATION_REPRESENTATION (  '', ( #29 ), #293 ) ;
#251 = CARTESIAN_POINT ( 'NONE',  ( 0.0000000000000000000, -7.499999999999998200, 0.6500000000000000200 ) ) ;
#252 = ORIENTED_EDGE ( 'NONE', *, *, #271, .F. ) ;
#253 = CARTESIAN_POINT ( 'NONE',  ( -15.00000000000000200, 22.50000000000000000, 0.6500000000000000200 ) ) ;
#254 = VERTEX_POINT ( 'NONE', #36 ) ;
#255 = DIRECTION ( 'NONE',  ( 1.000000000000000000, 0.0000000000000000000, 0.0000000000000000000 ) ) ;
#256 = CARTESIAN_POINT ( 'NONE',  ( 14.99999999999999800, -22.49999999999999300, -0.6500000000000000200 ) ) ;
#257 =( NAMED_UNIT ( * ) SI_UNIT ( $, .STERADIAN. ) SOLID_ANGLE_UNIT ( ) );
#258 = DIRECTION ( 'NONE',  ( -0.0000000000000000000, -0.0000000000000000000, -1.000000000000000000 ) ) ;
#259 = VERTEX_POINT ( 'NONE', #6 ) ;
#260 = ORIENTED_EDGE ( 'NONE', *, *, #71, .T. ) ;
#261 = PRESENTATION_STYLE_ASSIGNMENT (( #345 ) ) ;
#262 = PLANE ( 'NONE',  #56 ) ;
#263 = CARTESIAN_POINT ( 'NONE',  ( -15.00000000000000200, -22.50000000000000000, 0.6500000000000000200 ) ) ;
#264 = DIRECTION ( 'NONE',  ( 1.000000000000000000, 0.0000000000000000000, 0.0000000000000000000 ) ) ;
#265 = EDGE_LOOP ( 'NONE', ( #295, #374, #227, #360, #241, #182 ) ) ;
#266 = VERTEX_POINT ( 'NONE', #128 ) ;
#267 = CARTESIAN_POINT ( 'NONE',  ( -15.00000000000000200, 22.50000000000000000, 0.6500000000000000200 ) ) ;
#268 = AXIS2_PLACEMENT_3D ( 'NONE', #358, #153, #404 ) ;
#269 = CIRCLE ( 'NONE', #237, 11.10000000000000000 ) ;
#270 = DIRECTION ( 'NONE',  ( -0.0000000000000000000, 0.0000000000000000000, 1.000000000000000000 ) ) ;
#271 = EDGE_CURVE ( 'NONE', #76, #392, #164, .T. ) ;
#272 = CARTESIAN_POINT ( 'NONE',  ( 0.0000000000000000000, -7.499999999999998200, -0.6500000000000000200 ) ) ;
#273 = ORIENTED_EDGE ( 'NONE', *, *, #118, .T. ) ;
#274 = ORIENTED_EDGE ( 'NONE', *, *, #297, .F. ) ;
#275 = VECTOR ( 'NONE', #154, 1000.000000000000000 ) ;
#276 = AXIS2_PLACEMENT_3D ( 'NONE', #335, #228, #393 ) ;
#277 = UNCERTAINTY_MEASURE_WITH_UNIT (LENGTH_MEASURE( 1.000000000000000100E-005 ), #375, 'distance_accuracy_value', 'NONE');
#278 = ORIENTED_EDGE ( 'NONE', *, *, #304, .T. ) ;
#279 = DIRECTION ( 'NONE',  ( 1.000000000000000000, 2.312964634635743000E-016, -0.0000000000000000000 ) ) ;
#280 = LINE ( 'NONE', #391, #284 ) ;
#281 = ORIENTED_EDGE ( 'NONE', *, *, #97, .F. ) ;
#282 = AXIS2_PLACEMENT_3D ( 'NONE', #17, #401, #52 ) ;
#283 = VERTEX_POINT ( 'NONE', #130 ) ;
#284 = VECTOR ( 'NONE', #66, 1000.000000000000000 ) ;
#285 = FACE_OUTER_BOUND ( 'NONE', #230, .T. ) ;
#286 = EDGE_CURVE ( 'NONE', #248, #63, #244, .T. ) ;
#287 = DIRECTION ( 'NONE',  ( 0.0000000000000000000, 0.0000000000000000000, 1.000000000000000000 ) ) ;
#288 = EDGE_LOOP ( 'NONE', ( #43, #274, #18, #70 ) ) ;
#289 = DIRECTION ( 'NONE',  ( -0.0000000000000000000, -0.0000000000000000000, 1.000000000000000000 ) ) ;
#290 = VECTOR ( 'NONE', #305, 1000.000000000000000 ) ;
#291 = LINE ( 'NONE', #236, #186 ) ;
#292 = CARTESIAN_POINT ( 'NONE',  ( 14.99999999999999800, 22.50000000000000700, 0.6500000000000000200 ) ) ;
#293 =( GEOMETRIC_REPRESENTATION_CONTEXT ( 3 ) GLOBAL_UNCERTAINTY_ASSIGNED_CONTEXT ( ( #24 ) ) GLOBAL_UNIT_ASSIGNED_CONTEXT ( ( #92, #410, #257 ) ) REPRESENTATION_CONTEXT ( 'NONE', 'WORKASPACE' ) );
#294 = DIRECTION ( 'NONE',  ( 1.000000000000000000, 0.0000000000000000000, 0.0000000000000000000 ) ) ;
#295 = ORIENTED_EDGE ( 'NONE', *, *, #200, .F. ) ;
#296 = SURFACE_SIDE_STYLE ('',( #396 ) ) ;
#297 = EDGE_CURVE ( 'NONE', #334, #340, #331, .T. ) ;
#298 = FACE_BOUND ( 'NONE', #265, .T. ) ;
#299 = DIRECTION ( 'NONE',  ( -0.0000000000000000000, -0.0000000000000000000, 1.000000000000000000 ) ) ;
#300 = APPLICATION_CONTEXT ( 'automotive_design' ) ;
#301 = AXIS2_PLACEMENT_3D ( 'NONE', #329, #156, #385 ) ;
#302 = VECTOR ( 'NONE', #31, 1000.000000000000000 ) ;
#303 = DIRECTION ( 'NONE',  ( 0.0000000000000000000, 1.000000000000000000, -0.0000000000000000000 ) ) ;
#304 = EDGE_CURVE ( 'NONE', #218, #55, #221, .T. ) ;
#305 = DIRECTION ( 'NONE',  ( -0.0000000000000000000, -1.000000000000000000, -0.0000000000000000000 ) ) ;
#306 = CARTESIAN_POINT ( 'NONE',  ( -15.00000000000000200, -22.50000000000000000, 0.6500000000000000200 ) ) ;
#307 = AXIS2_PLACEMENT_3D ( 'NONE', #188, #26, #60 ) ;
#308 = CIRCLE ( 'NONE', #276, 11.10000000000000000 ) ;
#309 = EDGE_CURVE ( 'NONE', #7, #12, #131, .T. ) ;
#310 = ORIENTED_EDGE ( 'NONE', *, *, #222, .F. ) ;
#311 = FACE_OUTER_BOUND ( 'NONE', #176, .T. ) ;
#312 = ORIENTED_EDGE ( 'NONE', *, *, #246, .F. ) ;
#313 = VECTOR ( 'NONE', #367, 1000.000000000000000 ) ;
#314 = CYLINDRICAL_SURFACE ( 'NONE', #282, 11.10000000000000000 ) ;
#315 = EDGE_CURVE ( 'NONE', #55, #248, #325, .T. ) ;
#316 = ADVANCED_FACE ( 'NONE', ( #311 ), #95, .F. ) ;
#317 = PRODUCT_DEFINITION ( 'UNKNOWN', '', #376, #373 ) ;
#318 = CARTESIAN_POINT ( 'NONE',  ( 0.0000000000000000000, -7.499999999999998200, -0.6500000000000000200 ) ) ;
#319 = APPLICATION_PROTOCOL_DEFINITION ( 'draft international standard', 'automotive_design', 1998, #300 ) ;
#320 = DIRECTION ( 'NONE',  ( 0.0000000000000000000, 1.000000000000000000, 0.0000000000000000000 ) ) ;
#321 = ORIENTED_EDGE ( 'NONE', *, *, #185, .F. ) ;
#322 = EDGE_LOOP ( 'NONE', ( #96, #408, #377, #342 ) ) ;
#323 = CARTESIAN_POINT ( 'NONE',  ( 11.10000000000000000, -7.499999999999998200, -0.6500000000000000200 ) ) ;
#324 = ADVANCED_FACE ( 'NONE', ( #100 ), #161, .F. ) ;
#325 = LINE ( 'NONE', #389, #399 ) ;
#326 = CARTESIAN_POINT ( 'NONE',  ( -1.599999999999999400, 0.0000000000000000000, -0.6500000000000000200 ) ) ;
#327 = CARTESIAN_POINT ( 'NONE',  ( 11.10000000000000000, -7.499999999999998200, -0.6500000000000000200 ) ) ;
#328 = AXIS2_PLACEMENT_3D ( 'NONE', #272, #270, #264 ) ;
#329 = CARTESIAN_POINT ( 'NONE',  ( 14.99999999999999800, -22.49999999999999300, 0.6500000000000000200 ) ) ;
#330 = ORIENTED_EDGE ( 'NONE', *, *, #271, .T. ) ;
#331 = LINE ( 'NONE', #199, #313 ) ;
#332 = FILL_AREA_STYLE ('',( #143 ) ) ;
#333 = DIRECTION ( 'NONE',  ( 1.000000000000000000, 2.312964634635743000E-016, 0.0000000000000000000 ) ) ;
#334 = VERTEX_POINT ( 'NONE', #98 ) ;
#335 = CARTESIAN_POINT ( 'NONE',  ( 0.0000000000000000000, -7.499999999999998200, 0.6500000000000000200 ) ) ;
#336 = STYLED_ITEM ( 'NONE', ( #261 ), #93 ) ;
#337 = ORIENTED_EDGE ( 'NONE', *, *, #348, .T. ) ;
#338 = FACE_OUTER_BOUND ( 'NONE', #61, .T. ) ;
#339 = DIRECTION ( 'NONE',  ( 2.312964634635743000E-016, -1.000000000000000000, 0.0000000000000000000 ) ) ;
#340 = VERTEX_POINT ( 'NONE', #368 ) ;
#341 = VECTOR ( 'NONE', #258, 1000.000000000000000 ) ;
#342 = ORIENTED_EDGE ( 'NONE', *, *, #110, .T. ) ;
#343 = COLOUR_RGB ( '',0.6470588235294118000, 0.6196078431372549200, 0.5882352941176470800 ) ;
#344 =( GEOMETRIC_REPRESENTATION_CONTEXT ( 3 ) GLOBAL_UNCERTAINTY_ASSIGNED_CONTEXT ( ( #277 ) ) GLOBAL_UNIT_ASSIGNED_CONTEXT ( ( #375, #155, #189 ) ) REPRESENTATION_CONTEXT ( 'NONE', 'WORKASPACE' ) );
#345 = SURFACE_STYLE_USAGE ( .BOTH. , #409 ) ;
#346 = ORIENTED_EDGE ( 'NONE', *, *, #13, .T. ) ;
#347 = COLOUR_RGB ( '',0.6470588235294118000, 0.6196078431372549200, 0.5882352941176470800 ) ;
#348 = EDGE_CURVE ( 'NONE', #283, #105, #240, .T. ) ;
#349 = CARTESIAN_POINT ( 'NONE',  ( 1.600000000000000800, -17.79999999999999700, -0.6500000000000000200 ) ) ;
#350 = DIRECTION ( 'NONE',  ( -0.0000000000000000000, 0.0000000000000000000, 1.000000000000000000 ) ) ;
#351 = ADVANCED_FACE ( 'NONE', ( #135 ), #1, .F. ) ;
#352 = ORIENTED_EDGE ( 'NONE', *, *, #116, .T. ) ;
#353 = CARTESIAN_POINT ( 'NONE',  ( -1.599999999999999400, -17.79999999999999700, -0.6500000000000000200 ) ) ;
#354 = FACE_BOUND ( 'NONE', #111, .T. ) ;
#355 = CARTESIAN_POINT ( 'NONE',  ( -11.10000000000000000, -7.499999999999996400, 0.6500000000000000200 ) ) ;
#356 = PLANE ( 'NONE',  #301 ) ;
#357 = ORIENTED_EDGE ( 'NONE', *, *, #407, .F. ) ;
#358 = CARTESIAN_POINT ( 'NONE',  ( 0.0000000000000000000, 0.0000000000000000000, -0.6500000000000000200 ) ) ;
#359 = DIRECTION ( 'NONE',  ( -0.0000000000000000000, 0.0000000000000000000, 1.000000000000000000 ) ) ;
#360 = ORIENTED_EDGE ( 'NONE', *, *, #309, .F. ) ;
#361 = ORIENTED_EDGE ( 'NONE', *, *, #222, .T. ) ;
#362 = LINE ( 'NONE', #122, #214 ) ;
#363 =( GEOMETRIC_REPRESENTATION_CONTEXT ( 3 ) GLOBAL_UNCERTAINTY_ASSIGNED_CONTEXT ( ( #102 ) ) GLOBAL_UNIT_ASSIGNED_CONTEXT ( ( #25, #243, #406 ) ) REPRESENTATION_CONTEXT ( 'NONE', 'WORKASPACE' ) );
#364 = VECTOR ( 'NONE', #38, 1000.000000000000000 ) ;
#365 = CARTESIAN_POINT ( 'NONE',  ( -1.599999999999999400, 0.0000000000000000000, 0.6500000000000000200 ) ) ;
#366 = VECTOR ( 'NONE', #16, 1000.000000000000000 ) ;
#367 = DIRECTION ( 'NONE',  ( -0.0000000000000000000, -0.0000000000000000000, 1.000000000000000000 ) ) ;
#368 = CARTESIAN_POINT ( 'NONE',  ( 1.600000000000001600, -18.48407938791412500, 0.6500000000000000200 ) ) ;
#369 = EDGE_LOOP ( 'NONE', ( #232, #169, #46, #69 ) ) ;
#370 = DIRECTION ( 'NONE',  ( 1.000000000000000000, 2.312964634635743000E-016, -0.0000000000000000000 ) ) ;
#371 = ORIENTED_EDGE ( 'NONE', *, *, #152, .T. ) ;
#372 = VECTOR ( 'NONE', #279, 1000.000000000000000 ) ;
#373 = PRODUCT_DEFINITION_CONTEXT ( 'detailed design', #300, 'design' ) ;
#374 = ORIENTED_EDGE ( 'NONE', *, *, #134, .T. ) ;
#375 =( LENGTH_UNIT ( ) NAMED_UNIT ( * ) SI_UNIT ( .MILLI., .METRE. ) );
#376 = PRODUCT_DEFINITION_FORMATION_WITH_SPECIFIED_SOURCE ( 'ANY', '', #139, .NOT_KNOWN. ) ;
#377 = ORIENTED_EDGE ( 'NONE', *, *, #116, .F. ) ;
#378 = EDGE_CURVE ( 'NONE', #63, #283, #234, .T. ) ;
#379 = CIRCLE ( 'NONE', #216, 11.10000000000000000 ) ;
#380 = FILL_AREA_STYLE_COLOUR ( '', #347 ) ;
#381 = DIRECTION ( 'NONE',  ( -0.0000000000000000000, -0.0000000000000000000, 1.000000000000000000 ) ) ;
#382 = VECTOR ( 'NONE', #50, 1000.000000000000000 ) ;
#383 = CARTESIAN_POINT ( 'NONE',  ( 14.99999999999999800, -22.49999999999999300, 0.6500000000000000200 ) ) ;
#384 = LINE ( 'NONE', #253, #382 ) ;
#385 = DIRECTION ( 'NONE',  ( -1.000000000000000000, -2.312964634635743000E-016, 0.0000000000000000000 ) ) ;
#386 = PRESENTATION_LAYER_ASSIGNMENT (  '', '', ( #29 ) ) ;
#387 = ORIENTED_EDGE ( 'NONE', *, *, #47, .T. ) ;
#388 = ORIENTED_EDGE ( 'NONE', *, *, #32, .T. ) ;
#389 = CARTESIAN_POINT ( 'NONE',  ( 14.99999999999999800, 22.50000000000000700, 0.6500000000000000200 ) ) ;
#390 = VECTOR ( 'NONE', #68, 1000.000000000000000 ) ;
#391 = CARTESIAN_POINT ( 'NONE',  ( 14.99999999999999800, -22.49999999999999300, 0.6500000000000000200 ) ) ;
#392 = VERTEX_POINT ( 'NONE', #85 ) ;
#393 = DIRECTION ( 'NONE',  ( 1.000000000000000000, 0.0000000000000000000, 0.0000000000000000000 ) ) ;
#394 = CIRCLE ( 'NONE', #205, 11.10000000000000000 ) ;
#395 = VECTOR ( 'NONE', #2, 1000.000000000000000 ) ;
#396 = SURFACE_STYLE_FILL_AREA ( #332 ) ;
#397 = ORIENTED_EDGE ( 'NONE', *, *, #35, .F. ) ;
#398 = EDGE_LOOP ( 'NONE', ( #238, #397, #357, #388 ) ) ;
#399 = VECTOR ( 'NONE', #163, 1000.000000000000000 ) ;
#400 = CARTESIAN_POINT ( 'NONE',  ( -1.599999999999999400, -17.79999999999999700, 0.6500000000000000200 ) ) ;
#401 = DIRECTION ( 'NONE',  ( -0.0000000000000000000, -0.0000000000000000000, 1.000000000000000000 ) ) ;
#402 = ORIENTED_EDGE ( 'NONE', *, *, #174, .F. ) ;
#403 = FACE_OUTER_BOUND ( 'NONE', #288, .T. ) ;
#404 = DIRECTION ( 'NONE',  ( 1.000000000000000000, 0.0000000000000000000, -0.0000000000000000000 ) ) ;
#405 = CARTESIAN_POINT ( 'NONE',  ( 0.0000000000000000000, -17.79999999999999700, -0.6500000000000000200 ) ) ;
#406 =( NAMED_UNIT ( * ) SI_UNIT ( $, .STERADIAN. ) SOLID_ANGLE_UNIT ( ) );
#407 = EDGE_CURVE ( 'NONE', #107, #266, #44, .T. ) ;
#408 = ORIENTED_EDGE ( 'NONE', *, *, #32, .F. ) ;
#409 = SURFACE_SIDE_STYLE ('',( #34 ) ) ;
#410 =( NAMED_UNIT ( * ) PLANE_ANGLE_UNIT ( ) SI_UNIT ( $, .RADIAN. ) );
ENDSEC;
END-ISO-10303-21;
