ISO-10303-21;
HEADER;
FILE_DESCRIPTION (( 'STEP AP214' ),
    '1' );
FILE_NAME ('E22NS37.step',
    '2018-07-05T19:29:30',
    ( '' ),
    ( '' ),
    'SwSTEP 2.0',
    'SolidWorks 2017',
    '' );
FILE_SCHEMA (( 'AUTOMOTIVE_DESIGN' ));
ENDSEC;

DATA;
#1 = VECTOR ( 'NONE', #297, 1000.000000000000000 ) ;
#2 = ORIENTED_EDGE ( 'NONE', *, *, #390, .T. ) ;
#3 = CARTESIAN_POINT ( 'NONE',  ( 11.10000000000000000, -7.499999999999998200, 0.6500000000000000200 ) ) ;
#4 = DIRECTION ( 'NONE',  ( -0.0000000000000000000, 0.0000000000000000000, 1.000000000000000000 ) ) ;
#5 = VERTEX_POINT ( 'NONE', #218 ) ;
#6 = FACE_OUTER_BOUND ( 'NONE', #254, .T. ) ;
#7 = PLANE ( 'NONE',  #200 ) ;
#8 = ORIENTED_EDGE ( 'NONE', *, *, #33, .F. ) ;
#9 = STYLED_ITEM ( 'NONE', ( #162 ), #398 ) ;
#10 = PLANE ( 'NONE',  #103 ) ;
#11 = ORIENTED_EDGE ( 'NONE', *, *, #135, .T. ) ;
#12 = ORIENTED_EDGE ( 'NONE', *, *, #379, .T. ) ;
#13 = AXIS2_PLACEMENT_3D ( 'NONE', #95, #279, #91 ) ;
#14 = ORIENTED_EDGE ( 'NONE', *, *, #72, .T. ) ;
#15 = VECTOR ( 'NONE', #156, 1000.000000000000000 ) ;
#16 = DIRECTION ( 'NONE',  ( 0.0000000000000000000, 1.000000000000000000, 0.0000000000000000000 ) ) ;
#17 = CARTESIAN_POINT ( 'NONE',  ( 0.0000000000000000000, 0.0000000000000000000, 0.0000000000000000000 ) ) ;
#18 = ORIENTED_EDGE ( 'NONE', *, *, #343, .F. ) ;
#19 = EDGE_CURVE ( 'NONE', #153, #350, #307, .T. ) ;
#20 = ADVANCED_FACE ( 'NONE', ( #179 ), #348, .F. ) ;
#21 = SURFACE_SIDE_STYLE ('',( #299 ) ) ;
#22 = DIRECTION ( 'NONE',  ( -0.0000000000000000000, -0.0000000000000000000, 1.000000000000000000 ) ) ;
#23 = EDGE_LOOP ( 'NONE', ( #395, #250, #18, #264 ) ) ;
#24 = LINE ( 'NONE', #194, #15 ) ;
#25 = DIRECTION ( 'NONE',  ( 0.0000000000000000000, 0.0000000000000000000, 1.000000000000000000 ) ) ;
#26 = CIRCLE ( 'NONE', #149, 11.10000000000000000 ) ;
#27 = CARTESIAN_POINT ( 'NONE',  ( 14.99999999999999800, -22.49999999999999300, -0.6500000000000000200 ) ) ;
#28 = EDGE_CURVE ( 'NONE', #148, #5, #281, .T. ) ;
#29 = EDGE_CURVE ( 'NONE', #148, #258, #78, .T. ) ;
#30 = CARTESIAN_POINT ( 'NONE',  ( 1.600000000000000800, 0.0000000000000000000, -0.6500000000000000200 ) ) ;
#31 = CARTESIAN_POINT ( 'NONE',  ( 0.0000000000000000000, -7.499999999999998200, 0.6500000000000000200 ) ) ;
#32 = CARTESIAN_POINT ( 'NONE',  ( -15.00000000000000200, 22.50000000000000000, 0.6500000000000000200 ) ) ;
#33 = EDGE_CURVE ( 'NONE', #5, #131, #362, .T. ) ;
#34 = VERTEX_POINT ( 'NONE', #122 ) ;
#35 = DIRECTION ( 'NONE',  ( -0.0000000000000000000, -1.000000000000000000, -0.0000000000000000000 ) ) ;
#36 =( GEOMETRIC_REPRESENTATION_CONTEXT ( 3 ) GLOBAL_UNCERTAINTY_ASSIGNED_CONTEXT ( ( #353 ) ) GLOBAL_UNIT_ASSIGNED_CONTEXT ( ( #115, #86, #183 ) ) REPRESENTATION_CONTEXT ( 'NONE', 'WORKASPACE' ) );
#37 = LINE ( 'NONE', #382, #47 ) ;
#38 = DIRECTION ( 'NONE',  ( 0.0000000000000000000, 1.000000000000000000, 0.0000000000000000000 ) ) ;
#39 = LINE ( 'NONE', #384, #116 ) ;
#40 = EDGE_CURVE ( 'NONE', #323, #34, #128, .T. ) ;
#41 = ORIENTED_EDGE ( 'NONE', *, *, #311, .F. ) ;
#42 = CARTESIAN_POINT ( 'NONE',  ( -1.599999999999999400, -17.79999999999999700, -0.6500000000000000200 ) ) ;
#43 = DIRECTION ( 'NONE',  ( -0.0000000000000000000, -0.0000000000000000000, 1.000000000000000000 ) ) ;
#44 = DIRECTION ( 'NONE',  ( 1.000000000000000000, 0.0000000000000000000, 0.0000000000000000000 ) ) ;
#45 = AXIS2_PLACEMENT_3D ( 'NONE', #17, #215, #241 ) ;
#46 = EDGE_CURVE ( 'NONE', #278, #153, #208, .T. ) ;
#47 = VECTOR ( 'NONE', #374, 1000.000000000000000 ) ;
#48 = ORIENTED_EDGE ( 'NONE', *, *, #70, .F. ) ;
#49 = EDGE_CURVE ( 'NONE', #207, #278, #346, .T. ) ;
#50 = FILL_AREA_STYLE_COLOUR ( '', #245 ) ;
#51 = PLANE ( 'NONE',  #111 ) ;
#52 = DIRECTION ( 'NONE',  ( 1.000000000000000000, 0.0000000000000000000, 0.0000000000000000000 ) ) ;
#53 = FACE_BOUND ( 'NONE', #67, .T. ) ;
#54 = VERTEX_POINT ( 'NONE', #195 ) ;
#55 = DIRECTION ( 'NONE',  ( -1.000000000000000000, -2.312964634635743000E-016, 0.0000000000000000000 ) ) ;
#56 = CARTESIAN_POINT ( 'NONE',  ( 14.99999999999999800, 22.50000000000000700, -0.6500000000000000200 ) ) ;
#57 = LINE ( 'NONE', #334, #387 ) ;
#58 = VECTOR ( 'NONE', #38, 1000.000000000000000 ) ;
#59 = DIRECTION ( 'NONE',  ( -0.0000000000000000000, -0.0000000000000000000, -1.000000000000000000 ) ) ;
#60 = ORIENTED_EDGE ( 'NONE', *, *, #371, .T. ) ;
#61 = AXIS2_PLACEMENT_3D ( 'NONE', #30, #201, #127 ) ;
#62 = DIRECTION ( 'NONE',  ( -0.0000000000000000000, -0.0000000000000000000, -1.000000000000000000 ) ) ;
#63 = VERTEX_POINT ( 'NONE', #191 ) ;
#64 = ORIENTED_EDGE ( 'NONE', *, *, #92, .T. ) ;
#65 = CIRCLE ( 'NONE', #361, 11.10000000000000000 ) ;
#66 = COLOUR_RGB ( '',0.6470588235294118000, 0.6196078431372549200, 0.5882352941176470800 ) ;
#67 = EDGE_LOOP ( 'NONE', ( #342, #64, #246, #340, #202, #176 ) ) ;
#68 = CARTESIAN_POINT ( 'NONE',  ( -11.10000000000000000, -7.499999999999996400, 0.6500000000000000200 ) ) ;
#69 = PRODUCT_DEFINITION ( 'UNKNOWN', '', #155, #217 ) ;
#70 = EDGE_CURVE ( 'NONE', #63, #54, #288, .T. ) ;
#71 = ORIENTED_EDGE ( 'NONE', *, *, #255, .T. ) ;
#72 = EDGE_CURVE ( 'NONE', #317, #174, #24, .T. ) ;
#73 = PRESENTATION_LAYER_ASSIGNMENT (  '', '', ( #133 ) ) ;
#74 = LINE ( 'NONE', #302, #406 ) ;
#75 = ORIENTED_EDGE ( 'NONE', *, *, #265, .F. ) ;
#76 = DIRECTION ( 'NONE',  ( -0.0000000000000000000, 0.0000000000000000000, 1.000000000000000000 ) ) ;
#77 = DIRECTION ( 'NONE',  ( -0.0000000000000000000, 0.0000000000000000000, 1.000000000000000000 ) ) ;
#78 = LINE ( 'NONE', #119, #157 ) ;
#79 = ADVANCED_FACE ( 'NONE', ( #303, #409 ), #51, .T. ) ;
#80 = ORIENTED_EDGE ( 'NONE', *, *, #40, .F. ) ;
#81 = SURFACE_STYLE_USAGE ( .BOTH. , #338 ) ;
#82 = SHAPE_DEFINITION_REPRESENTATION ( #247, #222 ) ;
#83 = ORIENTED_EDGE ( 'NONE', *, *, #29, .F. ) ;
#84 =( LENGTH_UNIT ( ) NAMED_UNIT ( * ) SI_UNIT ( .MILLI., .METRE. ) );
#85 = AXIS2_PLACEMENT_3D ( 'NONE', #364, #108, #325 ) ;
#86 =( NAMED_UNIT ( * ) PLANE_ANGLE_UNIT ( ) SI_UNIT ( $, .RADIAN. ) );
#87 = ORIENTED_EDGE ( 'NONE', *, *, #311, .T. ) ;
#88 = ORIENTED_EDGE ( 'NONE', *, *, #216, .T. ) ;
#89 = LINE ( 'NONE', #253, #339 ) ;
#90 = ORIENTED_EDGE ( 'NONE', *, *, #46, .F. ) ;
#91 = DIRECTION ( 'NONE',  ( 1.000000000000000000, 0.0000000000000000000, 0.0000000000000000000 ) ) ;
#92 = EDGE_CURVE ( 'NONE', #184, #148, #26, .T. ) ;
#93 = CARTESIAN_POINT ( 'NONE',  ( 1.600000000000000800, -17.79999999999999700, -0.6500000000000000200 ) ) ;
#94 = EDGE_CURVE ( 'NONE', #391, #207, #274, .T. ) ;
#95 = CARTESIAN_POINT ( 'NONE',  ( 0.0000000000000000000, -7.499999999999998200, -0.6500000000000000200 ) ) ;
#96 = LINE ( 'NONE', #410, #175 ) ;
#97 = ORIENTED_EDGE ( 'NONE', *, *, #352, .T. ) ;
#98 = CARTESIAN_POINT ( 'NONE',  ( 1.600000000000000800, -17.79999999999999700, 0.6500000000000000200 ) ) ;
#99 = CARTESIAN_POINT ( 'NONE',  ( -1.599999999999999400, 0.0000000000000000000, -0.6500000000000000200 ) ) ;
#100 = DIRECTION ( 'NONE',  ( 1.000000000000000000, 0.0000000000000000000, 0.0000000000000000000 ) ) ;
#101 = CARTESIAN_POINT ( 'NONE',  ( 11.10000000000000000, -7.499999999999998200, -0.6500000000000000200 ) ) ;
#102 = ORIENTED_EDGE ( 'NONE', *, *, #379, .F. ) ;
#103 = AXIS2_PLACEMENT_3D ( 'NONE', #211, #180, #357 ) ;
#104 = CARTESIAN_POINT ( 'NONE',  ( 14.99999999999999800, -22.49999999999999300, 0.6500000000000000200 ) ) ;
#105 = UNCERTAINTY_MEASURE_WITH_UNIT (LENGTH_MEASURE( 1.000000000000000100E-005 ), #213, 'distance_accuracy_value', 'NONE');
#106 = EDGE_CURVE ( 'NONE', #331, #174, #386, .T. ) ;
#107 = EDGE_LOOP ( 'NONE', ( #407, #236, #2, #170 ) ) ;
#108 = DIRECTION ( 'NONE',  ( 0.0000000000000000000, -1.000000000000000000, 0.0000000000000000000 ) ) ;
#109 = CARTESIAN_POINT ( 'NONE',  ( 14.99999999999999800, 22.50000000000000700, 0.6500000000000000200 ) ) ;
#110 = DIRECTION ( 'NONE',  ( -0.0000000000000000000, -0.0000000000000000000, -1.000000000000000000 ) ) ;
#111 = AXIS2_PLACEMENT_3D ( 'NONE', #280, #370, #196 ) ;
#112 = ORIENTED_EDGE ( 'NONE', *, *, #29, .T. ) ;
#113 = VECTOR ( 'NONE', #199, 1000.000000000000000 ) ;
#114 = VECTOR ( 'NONE', #151, 1000.000000000000000 ) ;
#115 =( LENGTH_UNIT ( ) NAMED_UNIT ( * ) SI_UNIT ( .MILLI., .METRE. ) );
#116 = VECTOR ( 'NONE', #363, 1000.000000000000000 ) ;
#117 = ORIENTED_EDGE ( 'NONE', *, *, #106, .T. ) ;
#118 = PRODUCT_CONTEXT ( 'NONE', #368, 'mechanical' ) ;
#119 = CARTESIAN_POINT ( 'NONE',  ( 11.10000000000000000, -7.499999999999998200, -0.6500000000000000200 ) ) ;
#120 = MECHANICAL_DESIGN_GEOMETRIC_PRESENTATION_REPRESENTATION (  '', ( #9 ), #329 ) ;
#121 = LINE ( 'NONE', #286, #376 ) ;
#122 = CARTESIAN_POINT ( 'NONE',  ( -15.00000000000000200, 22.50000000000000000, -0.6500000000000000200 ) ) ;
#123 = CARTESIAN_POINT ( 'NONE',  ( 0.0000000000000000000, 0.0000000000000000000, -0.6500000000000000200 ) ) ;
#124 = CARTESIAN_POINT ( 'NONE',  ( 0.0000000000000000000, -7.499999999999998200, -0.6500000000000000200 ) ) ;
#125 = AXIS2_PLACEMENT_3D ( 'NONE', #249, #344, #25 ) ;
#126 = ORIENTED_EDGE ( 'NONE', *, *, #401, .F. ) ;
#127 = DIRECTION ( 'NONE',  ( 0.0000000000000000000, 0.0000000000000000000, -1.000000000000000000 ) ) ;
#128 = LINE ( 'NONE', #56, #188 ) ;
#129 = DIRECTION ( 'NONE',  ( -0.0000000000000000000, -0.0000000000000000000, 1.000000000000000000 ) ) ;
#130 = CARTESIAN_POINT ( 'NONE',  ( -15.00000000000000200, -22.50000000000000000, 0.6500000000000000200 ) ) ;
#131 = VERTEX_POINT ( 'NONE', #164 ) ;
#132 = DIRECTION ( 'NONE',  ( -0.0000000000000000000, -0.0000000000000000000, 1.000000000000000000 ) ) ;
#133 = STYLED_ITEM ( 'NONE', ( #206 ), #222 ) ;
#134 = PLANE ( 'NONE',  #296 ) ;
#135 = EDGE_CURVE ( 'NONE', #184, #317, #185, .T. ) ;
#136 = VECTOR ( 'NONE', #372, 1000.000000000000000 ) ;
#137 = FACE_OUTER_BOUND ( 'NONE', #163, .T. ) ;
#138 = ORIENTED_EDGE ( 'NONE', *, *, #255, .F. ) ;
#139 = ADVANCED_FACE ( 'NONE', ( #291 ), #7, .F. ) ;
#140 = MECHANICAL_DESIGN_GEOMETRIC_PRESENTATION_REPRESENTATION (  '', ( #133 ), #169 ) ;
#141 = ORIENTED_EDGE ( 'NONE', *, *, #182, .F. ) ;
#142 = FACE_OUTER_BOUND ( 'NONE', #173, .T. ) ;
#143 = ORIENTED_EDGE ( 'NONE', *, *, #28, .F. ) ;
#144 = ADVANCED_FACE ( 'NONE', ( #212 ), #373, .T. ) ;
#145 =( NAMED_UNIT ( * ) PLANE_ANGLE_UNIT ( ) SI_UNIT ( $, .RADIAN. ) );
#146 = FACE_OUTER_BOUND ( 'NONE', #240, .T. ) ;
#147 = ADVANCED_FACE ( 'NONE', ( #137 ), #273, .F. ) ;
#148 = VERTEX_POINT ( 'NONE', #101 ) ;
#149 = AXIS2_PLACEMENT_3D ( 'NONE', #197, #4, #158 ) ;
#150 = ADVANCED_FACE ( 'NONE', ( #146, #53 ), #351, .F. ) ;
#151 = DIRECTION ( 'NONE',  ( 0.0000000000000000000, 1.000000000000000000, -0.0000000000000000000 ) ) ;
#152 = VECTOR ( 'NONE', #110, 1000.000000000000000 ) ;
#153 = VERTEX_POINT ( 'NONE', #165 ) ;
#154 = CARTESIAN_POINT ( 'NONE',  ( -15.00000000000000200, -22.50000000000000000, 0.6500000000000000200 ) ) ;
#155 = PRODUCT_DEFINITION_FORMATION_WITH_SPECIFIED_SOURCE ( 'ANY', '', #190, .NOT_KNOWN. ) ;
#156 = DIRECTION ( 'NONE',  ( 0.0000000000000000000, 1.000000000000000000, -0.0000000000000000000 ) ) ;
#157 = VECTOR ( 'NONE', #22, 1000.000000000000000 ) ;
#158 = DIRECTION ( 'NONE',  ( 1.000000000000000000, 0.0000000000000000000, 0.0000000000000000000 ) ) ;
#159 = AXIS2_PLACEMENT_3D ( 'NONE', #123, #161, #259 ) ;
#160 = FACE_OUTER_BOUND ( 'NONE', #177, .T. ) ;
#161 = DIRECTION ( 'NONE',  ( 0.0000000000000000000, -0.0000000000000000000, 1.000000000000000000 ) ) ;
#162 = PRESENTATION_STYLE_ASSIGNMENT (( #81 ) ) ;
#163 = EDGE_LOOP ( 'NONE', ( #8, #193, #192, #243 ) ) ;
#164 = CARTESIAN_POINT ( 'NONE',  ( -1.600000000000000300, -18.48407938791412500, -0.6500000000000000200 ) ) ;
#165 = CARTESIAN_POINT ( 'NONE',  ( -15.00000000000000200, -22.50000000000000000, -0.6500000000000000200 ) ) ;
#166 = CARTESIAN_POINT ( 'NONE',  ( -11.10000000000000000, -7.499999999999996400, -0.6500000000000000200 ) ) ;
#167 = ORIENTED_EDGE ( 'NONE', *, *, #269, .F. ) ;
#168 = LINE ( 'NONE', #42, #1 ) ;
#169 =( GEOMETRIC_REPRESENTATION_CONTEXT ( 3 ) GLOBAL_UNCERTAINTY_ASSIGNED_CONTEXT ( ( #105 ) ) GLOBAL_UNIT_ASSIGNED_CONTEXT ( ( #213, #402, #181 ) ) REPRESENTATION_CONTEXT ( 'NONE', 'WORKASPACE' ) );
#170 = ORIENTED_EDGE ( 'NONE', *, *, #94, .T. ) ;
#171 = CARTESIAN_POINT ( 'NONE',  ( 0.0000000000000000000, -7.499999999999998200, -0.6500000000000000200 ) ) ;
#172 = CARTESIAN_POINT ( 'NONE',  ( -1.599999999999999400, -17.79999999999999700, -0.6500000000000000200 ) ) ;
#173 = EDGE_LOOP ( 'NONE', ( #225, #354, #333, #309 ) ) ;
#174 = VERTEX_POINT ( 'NONE', #98 ) ;
#175 = VECTOR ( 'NONE', #35, 1000.000000000000000 ) ;
#176 = ORIENTED_EDGE ( 'NONE', *, *, #401, .T. ) ;
#177 = EDGE_LOOP ( 'NONE', ( #305, #287, #141, #345 ) ) ;
#178 = LINE ( 'NONE', #104, #152 ) ;
#179 = FACE_OUTER_BOUND ( 'NONE', #392, .T. ) ;
#180 = DIRECTION ( 'NONE',  ( -2.312964634635743000E-016, 1.000000000000000000, 0.0000000000000000000 ) ) ;
#181 =( NAMED_UNIT ( * ) SI_UNIT ( $, .STERADIAN. ) SOLID_ANGLE_UNIT ( ) );
#182 = EDGE_CURVE ( 'NONE', #278, #266, #37, .T. ) ;
#183 =( NAMED_UNIT ( * ) SI_UNIT ( $, .STERADIAN. ) SOLID_ANGLE_UNIT ( ) );
#184 = VERTEX_POINT ( 'NONE', #203 ) ;
#185 = LINE ( 'NONE', #380, #113 ) ;
#186 = EDGE_LOOP ( 'NONE', ( #227, #242, #126, #97 ) ) ;
#187 = APPLICATION_CONTEXT ( 'automotive_design' ) ;
#188 = VECTOR ( 'NONE', #248, 1000.000000000000000 ) ;
#189 = ADVANCED_FACE ( 'NONE', ( #142 ), #316, .F. ) ;
#190 = PRODUCT ( 'E22NS37', 'E22NS37', '', ( #118 ) ) ;
#191 = CARTESIAN_POINT ( 'NONE',  ( -1.599999999999999400, -18.48407938791412500, 0.6500000000000000200 ) ) ;
#192 = ORIENTED_EDGE ( 'NONE', *, *, #276, .T. ) ;
#193 = ORIENTED_EDGE ( 'NONE', *, *, #265, .T. ) ;
#194 = CARTESIAN_POINT ( 'NONE',  ( 1.600000000000000800, 0.0000000000000000000, 0.6500000000000000200 ) ) ;
#195 = CARTESIAN_POINT ( 'NONE',  ( -1.599999999999999400, -17.79999999999999700, 0.6500000000000000200 ) ) ;
#196 = DIRECTION ( 'NONE',  ( 1.000000000000000000, 0.0000000000000000000, -0.0000000000000000000 ) ) ;
#197 = CARTESIAN_POINT ( 'NONE',  ( 0.0000000000000000000, -7.499999999999998200, -0.6500000000000000200 ) ) ;
#198 = ORIENTED_EDGE ( 'NONE', *, *, #232, .F. ) ;
#199 = DIRECTION ( 'NONE',  ( -0.0000000000000000000, -0.0000000000000000000, 1.000000000000000000 ) ) ;
#200 = AXIS2_PLACEMENT_3D ( 'NONE', #99, #319, #224 ) ;
#201 = DIRECTION ( 'NONE',  ( 1.000000000000000000, 0.0000000000000000000, 0.0000000000000000000 ) ) ;
#202 = ORIENTED_EDGE ( 'NONE', *, *, #343, .T. ) ;
#203 = CARTESIAN_POINT ( 'NONE',  ( 1.600000000000000800, -18.48407938791412500, -0.6500000000000000200 ) ) ;
#204 = FILL_AREA_STYLE ('',( #330 ) ) ;
#205 = PLANE ( 'NONE',  #85 ) ;
#206 = PRESENTATION_STYLE_ASSIGNMENT (( #306 ) ) ;
#207 = VERTEX_POINT ( 'NONE', #32 ) ;
#208 = LINE ( 'NONE', #154, #318 ) ;
#209 = DIRECTION ( 'NONE',  ( 0.0000000000000000000, 0.0000000000000000000, -1.000000000000000000 ) ) ;
#210 = EDGE_CURVE ( 'NONE', #258, #293, #65, .T. ) ;
#211 = CARTESIAN_POINT ( 'NONE',  ( 14.99999999999999800, -22.49999999999999300, 0.6500000000000000200 ) ) ;
#212 = FACE_OUTER_BOUND ( 'NONE', #369, .T. ) ;
#213 =( LENGTH_UNIT ( ) NAMED_UNIT ( * ) SI_UNIT ( .MILLI., .METRE. ) );
#214 = CLOSED_SHELL ( 'NONE', ( #147, #335, #79, #150, #341, #301, #20, #189, #144, #271, #139, #366 ) ) ;
#215 = DIRECTION ( 'NONE',  ( 0.0000000000000000000, 0.0000000000000000000, 1.000000000000000000 ) ) ;
#216 = EDGE_CURVE ( 'NONE', #207, #34, #89, .T. ) ;
#217 = PRODUCT_DEFINITION_CONTEXT ( 'detailed design', #187, 'design' ) ;
#218 = CARTESIAN_POINT ( 'NONE',  ( -11.10000000000000000, -7.499999999999996400, -0.6500000000000000200 ) ) ;
#219 = ORIENTED_EDGE ( 'NONE', *, *, #92, .F. ) ;
#220 = CARTESIAN_POINT ( 'NONE',  ( 14.99999999999999800, 22.50000000000000700, 0.6500000000000000200 ) ) ;
#221 = AXIS2_PLACEMENT_3D ( 'NONE', #237, #292, #44 ) ;
#222 = ADVANCED_BREP_SHAPE_REPRESENTATION ( 'E22NS37', ( #398, #45 ), #36 ) ;
#223 = CARTESIAN_POINT ( 'NONE',  ( 14.99999999999999800, 22.50000000000000700, 0.6500000000000000200 ) ) ;
#224 = DIRECTION ( 'NONE',  ( 0.0000000000000000000, 0.0000000000000000000, -1.000000000000000000 ) ) ;
#225 = ORIENTED_EDGE ( 'NONE', *, *, #40, .T. ) ;
#226 = DIRECTION ( 'NONE',  ( 1.000000000000000000, 0.0000000000000000000, 0.0000000000000000000 ) ) ;
#227 = ORIENTED_EDGE ( 'NONE', *, *, #269, .T. ) ;
#228 = CARTESIAN_POINT ( 'NONE',  ( 14.99999999999999800, -22.49999999999999300, 0.6500000000000000200 ) ) ;
#229 = LINE ( 'NONE', #228, #300 ) ;
#230 = CARTESIAN_POINT ( 'NONE',  ( 14.99999999999999800, -22.49999999999999300, -0.6500000000000000200 ) ) ;
#231 = ORIENTED_EDGE ( 'NONE', *, *, #49, .F. ) ;
#232 = EDGE_CURVE ( 'NONE', #391, #323, #394, .T. ) ;
#233 = AXIS2_PLACEMENT_3D ( 'NONE', #124, #320, #100 ) ;
#234 = CARTESIAN_POINT ( 'NONE',  ( 14.99999999999999800, -22.49999999999999300, -0.6500000000000000200 ) ) ;
#235 = CYLINDRICAL_SURFACE ( 'NONE', #404, 11.10000000000000000 ) ;
#236 = ORIENTED_EDGE ( 'NONE', *, *, #182, .T. ) ;
#237 = CARTESIAN_POINT ( 'NONE',  ( 0.0000000000000000000, -7.499999999999998200, -0.6500000000000000200 ) ) ;
#238 = VECTOR ( 'NONE', #55, 1000.000000000000000 ) ;
#239 = CYLINDRICAL_SURFACE ( 'NONE', #221, 11.10000000000000000 ) ;
#240 = EDGE_LOOP ( 'NONE', ( #138, #80, #41, #360 ) ) ;
#241 = DIRECTION ( 'NONE',  ( 1.000000000000000000, 0.0000000000000000000, 0.0000000000000000000 ) ) ;
#242 = ORIENTED_EDGE ( 'NONE', *, *, #106, .F. ) ;
#243 = ORIENTED_EDGE ( 'NONE', *, *, #337, .F. ) ;
#244 = VECTOR ( 'NONE', #132, 1000.000000000000000 ) ;
#245 = COLOUR_RGB ( '',0.6470588235294118000, 0.6196078431372549200, 0.5882352941176470800 ) ;
#246 = ORIENTED_EDGE ( 'NONE', *, *, #28, .T. ) ;
#247 = PRODUCT_DEFINITION_SHAPE ( 'NONE', 'NONE',  #69 ) ;
#248 = DIRECTION ( 'NONE',  ( -1.000000000000000000, -2.312964634635743000E-016, 0.0000000000000000000 ) ) ;
#249 = CARTESIAN_POINT ( 'NONE',  ( 14.99999999999999800, -22.49999999999999300, 0.6500000000000000200 ) ) ;
#250 = ORIENTED_EDGE ( 'NONE', *, *, #352, .F. ) ;
#251 = ORIENTED_EDGE ( 'NONE', *, *, #210, .T. ) ;
#252 = LINE ( 'NONE', #166, #310 ) ;
#253 = CARTESIAN_POINT ( 'NONE',  ( -15.00000000000000200, 22.50000000000000000, 0.6500000000000000200 ) ) ;
#254 = EDGE_LOOP ( 'NONE', ( #83, #219, #11, #12 ) ) ;
#255 = EDGE_CURVE ( 'NONE', #34, #153, #96, .T. ) ;
#256 = CARTESIAN_POINT ( 'NONE',  ( 14.99999999999999800, -22.49999999999999300, 0.6500000000000000200 ) ) ;
#257 = FACE_OUTER_BOUND ( 'NONE', #295, .T. ) ;
#258 = VERTEX_POINT ( 'NONE', #3 ) ;
#259 = DIRECTION ( 'NONE',  ( 1.000000000000000000, 0.0000000000000000000, -0.0000000000000000000 ) ) ;
#260 = VECTOR ( 'NONE', #408, 1000.000000000000000 ) ;
#261 = DIRECTION ( 'NONE',  ( 1.000000000000000000, 0.0000000000000000000, 0.0000000000000000000 ) ) ;
#262 = CARTESIAN_POINT ( 'NONE',  ( 1.600000000000000800, -17.79999999999999700, -0.6500000000000000200 ) ) ;
#263 = CIRCLE ( 'NONE', #321, 11.10000000000000000 ) ;
#264 = ORIENTED_EDGE ( 'NONE', *, *, #337, .T. ) ;
#265 = EDGE_CURVE ( 'NONE', #5, #293, #252, .T. ) ;
#266 = VERTEX_POINT ( 'NONE', #256 ) ;
#267 = CARTESIAN_POINT ( 'NONE',  ( 1.600000000000001600, -18.48407938791412500, 0.6500000000000000200 ) ) ;
#268 = DIRECTION ( 'NONE',  ( 1.000000000000000000, 0.0000000000000000000, 0.0000000000000000000 ) ) ;
#269 = EDGE_CURVE ( 'NONE', #54, #174, #121, .T. ) ;
#270 = CARTESIAN_POINT ( 'NONE',  ( -15.00000000000000200, -22.50000000000000000, 0.6500000000000000200 ) ) ;
#271 = ADVANCED_FACE ( 'NONE', ( #358 ), #205, .F. ) ;
#272 = ORIENTED_EDGE ( 'NONE', *, *, #72, .F. ) ;
#273 = CYLINDRICAL_SURFACE ( 'NONE', #233, 11.10000000000000000 ) ;
#274 = LINE ( 'NONE', #220, #238 ) ;
#275 =( NAMED_UNIT ( * ) SI_UNIT ( $, .STERADIAN. ) SOLID_ANGLE_UNIT ( ) );
#276 = EDGE_CURVE ( 'NONE', #293, #63, #294, .T. ) ;
#277 = AXIS2_PLACEMENT_3D ( 'NONE', #223, #285, #289 ) ;
#278 = VERTEX_POINT ( 'NONE', #130 ) ;
#279 = DIRECTION ( 'NONE',  ( -0.0000000000000000000, 0.0000000000000000000, 1.000000000000000000 ) ) ;
#280 = CARTESIAN_POINT ( 'NONE',  ( 0.0000000000000000000, 0.0000000000000000000, 0.6500000000000000200 ) ) ;
#281 = CIRCLE ( 'NONE', #13, 11.10000000000000000 ) ;
#282 = CARTESIAN_POINT ( 'NONE',  ( 0.0000000000000000000, -7.499999999999998200, -0.6500000000000000200 ) ) ;
#283 = CARTESIAN_POINT ( 'NONE',  ( -1.599999999999999400, 0.0000000000000000000, 0.6500000000000000200 ) ) ;
#284 = PRODUCT_RELATED_PRODUCT_CATEGORY ( 'part', '', ( #190 ) ) ;
#285 = DIRECTION ( 'NONE',  ( 2.312964634635743000E-016, -1.000000000000000000, 0.0000000000000000000 ) ) ;
#286 = CARTESIAN_POINT ( 'NONE',  ( 0.0000000000000000000, -17.79999999999999700, 0.6500000000000000200 ) ) ;
#287 = ORIENTED_EDGE ( 'NONE', *, *, #313, .F. ) ;
#288 = LINE ( 'NONE', #283, #114 ) ;
#289 = DIRECTION ( 'NONE',  ( 1.000000000000000000, 2.312964634635743000E-016, 0.0000000000000000000 ) ) ;
#290 = DIRECTION ( 'NONE',  ( 1.000000000000000000, 0.0000000000000000000, 0.0000000000000000000 ) ) ;
#291 = FACE_OUTER_BOUND ( 'NONE', #23, .T. ) ;
#292 = DIRECTION ( 'NONE',  ( -0.0000000000000000000, -0.0000000000000000000, 1.000000000000000000 ) ) ;
#293 = VERTEX_POINT ( 'NONE', #68 ) ;
#294 = CIRCLE ( 'NONE', #397, 11.10000000000000000 ) ;
#295 = EDGE_LOOP ( 'NONE', ( #71, #90, #231, #88 ) ) ;
#296 = AXIS2_PLACEMENT_3D ( 'NONE', #270, #268, #209 ) ;
#297 = DIRECTION ( 'NONE',  ( -0.0000000000000000000, -0.0000000000000000000, 1.000000000000000000 ) ) ;
#298 = DIRECTION ( 'NONE',  ( 1.000000000000000000, 0.0000000000000000000, 0.0000000000000000000 ) ) ;
#299 = SURFACE_STYLE_FILL_AREA ( #367 ) ;
#300 = VECTOR ( 'NONE', #16, 1000.000000000000000 ) ;
#301 = ADVANCED_FACE ( 'NONE', ( #160 ), #10, .F. ) ;
#302 = CARTESIAN_POINT ( 'NONE',  ( -1.599999999999999400, 0.0000000000000000000, -0.6500000000000000200 ) ) ;
#303 = FACE_OUTER_BOUND ( 'NONE', #107, .T. ) ;
#304 = APPLICATION_PROTOCOL_DEFINITION ( 'draft international standard', 'automotive_design', 1998, #368 ) ;
#305 = ORIENTED_EDGE ( 'NONE', *, *, #19, .T. ) ;
#306 = SURFACE_STYLE_USAGE ( .BOTH. , #21 ) ;
#307 = LINE ( 'NONE', #27, #326 ) ;
#308 = UNCERTAINTY_MEASURE_WITH_UNIT (LENGTH_MEASURE( 1.000000000000000100E-005 ), #84, 'distance_accuracy_value', 'NONE');
#309 = ORIENTED_EDGE ( 'NONE', *, *, #232, .T. ) ;
#310 = VECTOR ( 'NONE', #129, 1000.000000000000000 ) ;
#311 = EDGE_CURVE ( 'NONE', #350, #323, #389, .T. ) ;
#312 = ORIENTED_EDGE ( 'NONE', *, *, #276, .F. ) ;
#313 = EDGE_CURVE ( 'NONE', #266, #350, #178, .T. ) ;
#314 = DIRECTION ( 'NONE',  ( 1.000000000000000000, 2.312964634635743000E-016, -0.0000000000000000000 ) ) ;
#315 = DIRECTION ( 'NONE',  ( -0.0000000000000000000, -0.0000000000000000000, -1.000000000000000000 ) ) ;
#316 = PLANE ( 'NONE',  #277 ) ;
#317 = VERTEX_POINT ( 'NONE', #267 ) ;
#318 = VECTOR ( 'NONE', #315, 1000.000000000000000 ) ;
#319 = DIRECTION ( 'NONE',  ( 1.000000000000000000, 0.0000000000000000000, 0.0000000000000000000 ) ) ;
#320 = DIRECTION ( 'NONE',  ( -0.0000000000000000000, -0.0000000000000000000, 1.000000000000000000 ) ) ;
#321 = AXIS2_PLACEMENT_3D ( 'NONE', #324, #76, #298 ) ;
#322 = DIRECTION ( 'NONE',  ( -0.0000000000000000000, 0.0000000000000000000, 1.000000000000000000 ) ) ;
#323 = VERTEX_POINT ( 'NONE', #393 ) ;
#324 = CARTESIAN_POINT ( 'NONE',  ( 0.0000000000000000000, -7.499999999999998200, 0.6500000000000000200 ) ) ;
#325 = DIRECTION ( 'NONE',  ( 0.0000000000000000000, -0.0000000000000000000, -1.000000000000000000 ) ) ;
#326 = VECTOR ( 'NONE', #314, 1000.000000000000000 ) ;
#327 = FACE_OUTER_BOUND ( 'NONE', #388, .T. ) ;
#328 = EDGE_LOOP ( 'NONE', ( #102, #14, #167, #48, #312, #375 ) ) ;
#329 =( GEOMETRIC_REPRESENTATION_CONTEXT ( 3 ) GLOBAL_UNCERTAINTY_ASSIGNED_CONTEXT ( ( #308 ) ) GLOBAL_UNIT_ASSIGNED_CONTEXT ( ( #84, #145, #275 ) ) REPRESENTATION_CONTEXT ( 'NONE', 'WORKASPACE' ) );
#330 = FILL_AREA_STYLE_COLOUR ( '', #66 ) ;
#331 = VERTEX_POINT ( 'NONE', #262 ) ;
#332 = LINE ( 'NONE', #359, #244 ) ;
#333 = ORIENTED_EDGE ( 'NONE', *, *, #94, .F. ) ;
#334 = CARTESIAN_POINT ( 'NONE',  ( 0.0000000000000000000, -17.79999999999999700, -0.6500000000000000200 ) ) ;
#335 = ADVANCED_FACE ( 'NONE', ( #327 ), #239, .F. ) ;
#336 = AXIS2_PLACEMENT_3D ( 'NONE', #282, #347, #52 ) ;
#337 = EDGE_CURVE ( 'NONE', #131, #63, #332, .T. ) ;
#338 = SURFACE_SIDE_STYLE ('',( #385 ) ) ;
#339 = VECTOR ( 'NONE', #62, 1000.000000000000000 ) ;
#340 = ORIENTED_EDGE ( 'NONE', *, *, #33, .T. ) ;
#341 = ADVANCED_FACE ( 'NONE', ( #257 ), #134, .F. ) ;
#342 = ORIENTED_EDGE ( 'NONE', *, *, #371, .F. ) ;
#343 = EDGE_CURVE ( 'NONE', #131, #400, #74, .T. ) ;
#344 = DIRECTION ( 'NONE',  ( -1.000000000000000000, 0.0000000000000000000, 0.0000000000000000000 ) ) ;
#345 = ORIENTED_EDGE ( 'NONE', *, *, #46, .T. ) ;
#346 = LINE ( 'NONE', #403, #260 ) ;
#347 = DIRECTION ( 'NONE',  ( -0.0000000000000000000, 0.0000000000000000000, 1.000000000000000000 ) ) ;
#348 = PLANE ( 'NONE',  #125 ) ;
#349 = VECTOR ( 'NONE', #59, 1000.000000000000000 ) ;
#350 = VERTEX_POINT ( 'NONE', #234 ) ;
#351 = PLANE ( 'NONE',  #159 ) ;
#352 = EDGE_CURVE ( 'NONE', #400, #54, #168, .T. ) ;
#353 = UNCERTAINTY_MEASURE_WITH_UNIT (LENGTH_MEASURE( 1.000000000000000100E-005 ), #115, 'distance_accuracy_value', 'NONE');
#354 = ORIENTED_EDGE ( 'NONE', *, *, #216, .F. ) ;
#355 = DIRECTION ( 'NONE',  ( 1.000000000000000000, 0.0000000000000000000, 0.0000000000000000000 ) ) ;
#356 = DIRECTION ( 'NONE',  ( 0.0000000000000000000, 1.000000000000000000, -0.0000000000000000000 ) ) ;
#357 = DIRECTION ( 'NONE',  ( -1.000000000000000000, -2.312964634635743000E-016, 0.0000000000000000000 ) ) ;
#358 = FACE_OUTER_BOUND ( 'NONE', #186, .T. ) ;
#359 = CARTESIAN_POINT ( 'NONE',  ( -1.599999999999999400, -18.48407938791412500, -0.6500000000000000200 ) ) ;
#360 = ORIENTED_EDGE ( 'NONE', *, *, #19, .F. ) ;
#361 = AXIS2_PLACEMENT_3D ( 'NONE', #31, #322, #226 ) ;
#362 = CIRCLE ( 'NONE', #336, 11.10000000000000000 ) ;
#363 = DIRECTION ( 'NONE',  ( 0.0000000000000000000, 1.000000000000000000, -0.0000000000000000000 ) ) ;
#364 = CARTESIAN_POINT ( 'NONE',  ( 0.0000000000000000000, -17.79999999999999700, -0.6500000000000000200 ) ) ;
#365 = DIRECTION ( 'NONE',  ( 1.000000000000000000, 0.0000000000000000000, 0.0000000000000000000 ) ) ;
#366 = ADVANCED_FACE ( 'NONE', ( #6 ), #235, .F. ) ;
#367 = FILL_AREA_STYLE ('',( #50 ) ) ;
#368 = APPLICATION_CONTEXT ( 'automotive_design' ) ;
#369 = EDGE_LOOP ( 'NONE', ( #272, #378, #60, #117 ) ) ;
#370 = DIRECTION ( 'NONE',  ( 0.0000000000000000000, -0.0000000000000000000, 1.000000000000000000 ) ) ;
#371 = EDGE_CURVE ( 'NONE', #184, #331, #39, .T. ) ;
#372 = DIRECTION ( 'NONE',  ( -0.0000000000000000000, -0.0000000000000000000, 1.000000000000000000 ) ) ;
#373 = PLANE ( 'NONE',  #61 ) ;
#374 = DIRECTION ( 'NONE',  ( 1.000000000000000000, 2.312964634635743000E-016, -0.0000000000000000000 ) ) ;
#375 = ORIENTED_EDGE ( 'NONE', *, *, #210, .F. ) ;
#376 = VECTOR ( 'NONE', #355, 1000.000000000000000 ) ;
#377 = CARTESIAN_POINT ( 'NONE',  ( 14.99999999999999800, 22.50000000000000700, 0.6500000000000000200 ) ) ;
#378 = ORIENTED_EDGE ( 'NONE', *, *, #135, .F. ) ;
#379 = EDGE_CURVE ( 'NONE', #317, #258, #263, .T. ) ;
#380 = CARTESIAN_POINT ( 'NONE',  ( 1.600000000000000800, -18.48407938791412500, -0.6500000000000000200 ) ) ;
#381 = PRESENTATION_LAYER_ASSIGNMENT (  '', '', ( #9 ) ) ;
#382 = CARTESIAN_POINT ( 'NONE',  ( 14.99999999999999800, -22.49999999999999300, 0.6500000000000000200 ) ) ;
#383 = ORIENTED_EDGE ( 'NONE', *, *, #313, .T. ) ;
#384 = CARTESIAN_POINT ( 'NONE',  ( 1.600000000000000800, 0.0000000000000000000, -0.6500000000000000200 ) ) ;
#385 = SURFACE_STYLE_FILL_AREA ( #204 ) ;
#386 = LINE ( 'NONE', #93, #136 ) ;
#387 = VECTOR ( 'NONE', #365, 1000.000000000000000 ) ;
#388 = EDGE_LOOP ( 'NONE', ( #75, #143, #112, #251 ) ) ;
#389 = LINE ( 'NONE', #230, #58 ) ;
#390 = EDGE_CURVE ( 'NONE', #266, #391, #229, .T. ) ;
#391 = VERTEX_POINT ( 'NONE', #109 ) ;
#392 = EDGE_LOOP ( 'NONE', ( #87, #198, #405, #383 ) ) ;
#393 = CARTESIAN_POINT ( 'NONE',  ( 14.99999999999999800, 22.50000000000000700, -0.6500000000000000200 ) ) ;
#394 = LINE ( 'NONE', #377, #349 ) ;
#395 = ORIENTED_EDGE ( 'NONE', *, *, #70, .T. ) ;
#396 = CARTESIAN_POINT ( 'NONE',  ( 0.0000000000000000000, -7.499999999999998200, 0.6500000000000000200 ) ) ;
#397 = AXIS2_PLACEMENT_3D ( 'NONE', #396, #77, #261 ) ;
#398 = MANIFOLD_SOLID_BREP ( 'Cut-Extrude1', #214 ) ;
#399 = APPLICATION_PROTOCOL_DEFINITION ( 'draft international standard', 'automotive_design', 1998, #187 ) ;
#400 = VERTEX_POINT ( 'NONE', #172 ) ;
#401 = EDGE_CURVE ( 'NONE', #400, #331, #57, .T. ) ;
#402 =( NAMED_UNIT ( * ) PLANE_ANGLE_UNIT ( ) SI_UNIT ( $, .RADIAN. ) );
#403 = CARTESIAN_POINT ( 'NONE',  ( -15.00000000000000200, -22.50000000000000000, 0.6500000000000000200 ) ) ;
#404 = AXIS2_PLACEMENT_3D ( 'NONE', #171, #43, #290 ) ;
#405 = ORIENTED_EDGE ( 'NONE', *, *, #390, .F. ) ;
#406 = VECTOR ( 'NONE', #356, 1000.000000000000000 ) ;
#407 = ORIENTED_EDGE ( 'NONE', *, *, #49, .T. ) ;
#408 = DIRECTION ( 'NONE',  ( -0.0000000000000000000, -1.000000000000000000, -0.0000000000000000000 ) ) ;
#409 = FACE_BOUND ( 'NONE', #328, .T. ) ;
#410 = CARTESIAN_POINT ( 'NONE',  ( -15.00000000000000200, -22.50000000000000000, -0.6500000000000000200 ) ) ;
ENDSEC;
END-ISO-10303-21;
