ISO-10303-21;
HEADER;
/* Generated by software containing ST-Developer
 * from STEP Tools, Inc. (www.steptools.com) 
 */

FILE_DESCRIPTION(
/* description */ (''),
/* implementation_level */ '2;1');

FILE_NAME(
/* name */ 'G:\\INVENTOR\\WEBSITE SOLIDS\\STP FILES\\FBKT-8.stp',
/* time_stamp */ '2015-08-19T11:39:28-04:00',
/* author */ ('eanderson'),
/* organization */ (''),
/* preprocessor_version */ 'ST-DEVELOPER v15.2',
/* originating_system */ 'Autodesk Inventor 2014',
/* authorisation */ '');

FILE_SCHEMA (('AUTOMOTIVE_DESIGN { 1 0 10303 214 3 1 1 }'));
ENDSEC;

DATA;
#10=SHAPE_REPRESENTATION_RELATIONSHIP('SRR','None',#596,#11);
#11=ADVANCED_BREP_SHAPE_REPRESENTATION($,(#346),#584);
#12=STYLED_ITEM($,(#604),#346);
#13=PLANE($,#357);
#14=PLANE($,#359);
#15=PLANE($,#368);
#16=PLANE($,#372);
#17=PLANE($,#373);
#18=PLANE($,#376);
#19=PLANE($,#379);
#20=PLANE($,#382);
#21=PLANE($,#383);
#22=LINE($,#502,#50);
#23=LINE($,#505,#51);
#24=LINE($,#508,#52);
#25=LINE($,#512,#53);
#26=LINE($,#514,#54);
#27=LINE($,#515,#55);
#28=LINE($,#518,#56);
#29=LINE($,#519,#57);
#30=LINE($,#523,#58);
#31=LINE($,#529,#59);
#32=LINE($,#532,#60);
#33=LINE($,#538,#61);
#34=LINE($,#541,#62);
#35=LINE($,#544,#63);
#36=LINE($,#546,#64);
#37=LINE($,#547,#65);
#38=LINE($,#553,#66);
#39=LINE($,#555,#67);
#40=LINE($,#556,#68);
#41=LINE($,#560,#69);
#42=LINE($,#562,#70);
#43=LINE($,#565,#71);
#44=LINE($,#568,#72);
#45=LINE($,#569,#73);
#46=LINE($,#574,#74);
#47=LINE($,#575,#75);
#48=LINE($,#579,#76);
#49=LINE($,#581,#77);
#50=VECTOR($,#402,0.0900000000000001);
#51=VECTOR($,#405,0.0900000000000001);
#52=VECTOR($,#408,1.);
#53=VECTOR($,#411,0.535);
#54=VECTOR($,#412,1.5);
#55=VECTOR($,#413,0.535);
#56=VECTOR($,#416,1.);
#57=VECTOR($,#417,0.0900000000000001);
#58=VECTOR($,#422,0.0900000000000001);
#59=VECTOR($,#427,0.0900000000000001);
#60=VECTOR($,#430,0.0900000000000001);
#61=VECTOR($,#435,0.0900000000000002);
#62=VECTOR($,#438,0.0900000000000002);
#63=VECTOR($,#441,0.75);
#64=VECTOR($,#442,0.75);
#65=VECTOR($,#443,0.0900000000000001);
#66=VECTOR($,#450,0.0900000000000001);
#67=VECTOR($,#453,0.75);
#68=VECTOR($,#454,0.75);
#69=VECTOR($,#459,1.535);
#70=VECTOR($,#460,1.535);
#71=VECTOR($,#463,0.535);
#72=VECTOR($,#466,1.5);
#73=VECTOR($,#467,1.535);
#74=VECTOR($,#474,1.5);
#75=VECTOR($,#475,0.535);
#76=VECTOR($,#480,1.5);
#77=VECTOR($,#483,1.535);
#78=FACE_BOUND($,#105,.T.);
#79=FACE_BOUND($,#107,.T.);
#80=FACE_BOUND($,#109,.T.);
#81=FACE_BOUND($,#110,.T.);
#82=FACE_BOUND($,#111,.T.);
#83=FACE_BOUND($,#120,.T.);
#84=FACE_BOUND($,#121,.T.);
#85=FACE_BOUND($,#123,.T.);
#86=FACE_BOUND($,#124,.T.);
#87=FACE_BOUND($,#125,.T.);
#88=FACE_BOUND($,#128,.T.);
#89=FACE_OUTER_BOUND($,#104,.T.);
#90=FACE_OUTER_BOUND($,#106,.T.);
#91=FACE_OUTER_BOUND($,#108,.T.);
#92=FACE_OUTER_BOUND($,#112,.T.);
#93=FACE_OUTER_BOUND($,#113,.T.);
#94=FACE_OUTER_BOUND($,#114,.T.);
#95=FACE_OUTER_BOUND($,#115,.T.);
#96=FACE_OUTER_BOUND($,#116,.T.);
#97=FACE_OUTER_BOUND($,#117,.T.);
#98=FACE_OUTER_BOUND($,#118,.T.);
#99=FACE_OUTER_BOUND($,#119,.T.);
#100=FACE_OUTER_BOUND($,#122,.T.);
#101=FACE_OUTER_BOUND($,#126,.T.);
#102=FACE_OUTER_BOUND($,#127,.T.);
#103=FACE_OUTER_BOUND($,#129,.T.);
#104=EDGE_LOOP($,(#226));
#105=EDGE_LOOP($,(#227));
#106=EDGE_LOOP($,(#228));
#107=EDGE_LOOP($,(#229));
#108=EDGE_LOOP($,(#230,#231,#232,#233));
#109=EDGE_LOOP($,(#234));
#110=EDGE_LOOP($,(#235));
#111=EDGE_LOOP($,(#236,#237,#238,#239,#240,#241));
#112=EDGE_LOOP($,(#242,#243,#244,#245));
#113=EDGE_LOOP($,(#246,#247,#248,#249));
#114=EDGE_LOOP($,(#250,#251,#252,#253));
#115=EDGE_LOOP($,(#254,#255,#256,#257));
#116=EDGE_LOOP($,(#258,#259,#260,#261));
#117=EDGE_LOOP($,(#262,#263,#264,#265));
#118=EDGE_LOOP($,(#266,#267,#268,#269));
#119=EDGE_LOOP($,(#270,#271,#272,#273,#274,#275,#276,#277));
#120=EDGE_LOOP($,(#278,#279,#280,#281));
#121=EDGE_LOOP($,(#282,#283,#284,#285));
#122=EDGE_LOOP($,(#286,#287,#288,#289));
#123=EDGE_LOOP($,(#290));
#124=EDGE_LOOP($,(#291));
#125=EDGE_LOOP($,(#292,#293,#294,#295,#296,#297));
#126=EDGE_LOOP($,(#298,#299,#300,#301));
#127=EDGE_LOOP($,(#302,#303,#304,#305));
#128=EDGE_LOOP($,(#306,#307,#308,#309));
#129=EDGE_LOOP($,(#310,#311,#312,#313,#314,#315,#316,#317));
#130=CIRCLE($,#349,0.109375);
#131=CIRCLE($,#350,0.109375);
#132=CIRCLE($,#352,0.109375);
#133=CIRCLE($,#353,0.109375);
#134=CIRCLE($,#355,0.25);
#135=CIRCLE($,#356,0.25);
#136=CIRCLE($,#358,0.25);
#137=CIRCLE($,#361,0.25);
#138=CIRCLE($,#363,0.75);
#139=CIRCLE($,#364,0.75);
#140=CIRCLE($,#366,0.61);
#141=CIRCLE($,#367,0.61);
#142=CIRCLE($,#370,0.61);
#143=CIRCLE($,#371,0.61);
#144=CIRCLE($,#374,0.215);
#145=CIRCLE($,#375,0.124999999999999);
#146=CIRCLE($,#378,0.215);
#147=CIRCLE($,#381,0.124999999999999);
#148=VERTEX_POINT($,#488);
#149=VERTEX_POINT($,#490);
#150=VERTEX_POINT($,#493);
#151=VERTEX_POINT($,#495);
#152=VERTEX_POINT($,#498);
#153=VERTEX_POINT($,#499);
#154=VERTEX_POINT($,#501);
#155=VERTEX_POINT($,#503);
#156=VERTEX_POINT($,#507);
#157=VERTEX_POINT($,#509);
#158=VERTEX_POINT($,#511);
#159=VERTEX_POINT($,#513);
#160=VERTEX_POINT($,#517);
#161=VERTEX_POINT($,#521);
#162=VERTEX_POINT($,#525);
#163=VERTEX_POINT($,#526);
#164=VERTEX_POINT($,#528);
#165=VERTEX_POINT($,#530);
#166=VERTEX_POINT($,#534);
#167=VERTEX_POINT($,#535);
#168=VERTEX_POINT($,#537);
#169=VERTEX_POINT($,#539);
#170=VERTEX_POINT($,#543);
#171=VERTEX_POINT($,#545);
#172=VERTEX_POINT($,#549);
#173=VERTEX_POINT($,#551);
#174=VERTEX_POINT($,#558);
#175=VERTEX_POINT($,#561);
#176=VERTEX_POINT($,#563);
#177=VERTEX_POINT($,#567);
#178=VERTEX_POINT($,#573);
#179=VERTEX_POINT($,#577);
#180=EDGE_CURVE($,#148,#148,#130,.T.);
#181=EDGE_CURVE($,#149,#149,#131,.T.);
#182=EDGE_CURVE($,#150,#150,#132,.T.);
#183=EDGE_CURVE($,#151,#151,#133,.T.);
#184=EDGE_CURVE($,#152,#153,#134,.T.);
#185=EDGE_CURVE($,#153,#154,#22,.T.);
#186=EDGE_CURVE($,#154,#155,#135,.T.);
#187=EDGE_CURVE($,#155,#152,#23,.T.);
#188=EDGE_CURVE($,#156,#152,#24,.T.);
#189=EDGE_CURVE($,#157,#156,#136,.T.);
#190=EDGE_CURVE($,#158,#157,#25,.T.);
#191=EDGE_CURVE($,#158,#159,#26,.T.);
#192=EDGE_CURVE($,#153,#159,#27,.T.);
#193=EDGE_CURVE($,#160,#155,#28,.T.);
#194=EDGE_CURVE($,#156,#160,#29,.T.);
#195=EDGE_CURVE($,#160,#161,#137,.T.);
#196=EDGE_CURVE($,#161,#157,#30,.T.);
#197=EDGE_CURVE($,#162,#163,#138,.T.);
#198=EDGE_CURVE($,#162,#164,#31,.T.);
#199=EDGE_CURVE($,#165,#164,#139,.T.);
#200=EDGE_CURVE($,#163,#165,#32,.T.);
#201=EDGE_CURVE($,#166,#167,#140,.T.);
#202=EDGE_CURVE($,#168,#166,#33,.T.);
#203=EDGE_CURVE($,#169,#168,#141,.T.);
#204=EDGE_CURVE($,#169,#167,#34,.T.);
#205=EDGE_CURVE($,#167,#170,#35,.T.);
#206=EDGE_CURVE($,#171,#169,#36,.T.);
#207=EDGE_CURVE($,#171,#170,#37,.T.);
#208=EDGE_CURVE($,#170,#172,#142,.T.);
#209=EDGE_CURVE($,#173,#171,#143,.T.);
#210=EDGE_CURVE($,#173,#172,#38,.T.);
#211=EDGE_CURVE($,#172,#166,#39,.T.);
#212=EDGE_CURVE($,#168,#173,#40,.T.);
#213=EDGE_CURVE($,#159,#174,#144,.T.);
#214=EDGE_CURVE($,#174,#164,#41,.T.);
#215=EDGE_CURVE($,#162,#175,#42,.T.);
#216=EDGE_CURVE($,#175,#176,#145,.T.);
#217=EDGE_CURVE($,#176,#154,#43,.T.);
#218=EDGE_CURVE($,#177,#174,#44,.T.);
#219=EDGE_CURVE($,#165,#177,#45,.T.);
#220=EDGE_CURVE($,#177,#158,#146,.T.);
#221=EDGE_CURVE($,#178,#176,#46,.T.);
#222=EDGE_CURVE($,#161,#178,#47,.T.);
#223=EDGE_CURVE($,#178,#179,#147,.T.);
#224=EDGE_CURVE($,#179,#175,#48,.T.);
#225=EDGE_CURVE($,#179,#163,#49,.T.);
#226=ORIENTED_EDGE($,*,*,#180,.F.);
#227=ORIENTED_EDGE($,*,*,#181,.F.);
#228=ORIENTED_EDGE($,*,*,#182,.F.);
#229=ORIENTED_EDGE($,*,*,#183,.F.);
#230=ORIENTED_EDGE($,*,*,#184,.T.);
#231=ORIENTED_EDGE($,*,*,#185,.T.);
#232=ORIENTED_EDGE($,*,*,#186,.T.);
#233=ORIENTED_EDGE($,*,*,#187,.T.);
#234=ORIENTED_EDGE($,*,*,#180,.T.);
#235=ORIENTED_EDGE($,*,*,#182,.T.);
#236=ORIENTED_EDGE($,*,*,#184,.F.);
#237=ORIENTED_EDGE($,*,*,#188,.F.);
#238=ORIENTED_EDGE($,*,*,#189,.F.);
#239=ORIENTED_EDGE($,*,*,#190,.F.);
#240=ORIENTED_EDGE($,*,*,#191,.T.);
#241=ORIENTED_EDGE($,*,*,#192,.F.);
#242=ORIENTED_EDGE($,*,*,#187,.F.);
#243=ORIENTED_EDGE($,*,*,#193,.F.);
#244=ORIENTED_EDGE($,*,*,#194,.F.);
#245=ORIENTED_EDGE($,*,*,#188,.T.);
#246=ORIENTED_EDGE($,*,*,#195,.T.);
#247=ORIENTED_EDGE($,*,*,#196,.T.);
#248=ORIENTED_EDGE($,*,*,#189,.T.);
#249=ORIENTED_EDGE($,*,*,#194,.T.);
#250=ORIENTED_EDGE($,*,*,#197,.F.);
#251=ORIENTED_EDGE($,*,*,#198,.T.);
#252=ORIENTED_EDGE($,*,*,#199,.F.);
#253=ORIENTED_EDGE($,*,*,#200,.F.);
#254=ORIENTED_EDGE($,*,*,#201,.F.);
#255=ORIENTED_EDGE($,*,*,#202,.F.);
#256=ORIENTED_EDGE($,*,*,#203,.F.);
#257=ORIENTED_EDGE($,*,*,#204,.T.);
#258=ORIENTED_EDGE($,*,*,#205,.F.);
#259=ORIENTED_EDGE($,*,*,#204,.F.);
#260=ORIENTED_EDGE($,*,*,#206,.F.);
#261=ORIENTED_EDGE($,*,*,#207,.T.);
#262=ORIENTED_EDGE($,*,*,#208,.F.);
#263=ORIENTED_EDGE($,*,*,#207,.F.);
#264=ORIENTED_EDGE($,*,*,#209,.F.);
#265=ORIENTED_EDGE($,*,*,#210,.T.);
#266=ORIENTED_EDGE($,*,*,#211,.F.);
#267=ORIENTED_EDGE($,*,*,#210,.F.);
#268=ORIENTED_EDGE($,*,*,#212,.F.);
#269=ORIENTED_EDGE($,*,*,#202,.T.);
#270=ORIENTED_EDGE($,*,*,#185,.F.);
#271=ORIENTED_EDGE($,*,*,#192,.T.);
#272=ORIENTED_EDGE($,*,*,#213,.T.);
#273=ORIENTED_EDGE($,*,*,#214,.T.);
#274=ORIENTED_EDGE($,*,*,#198,.F.);
#275=ORIENTED_EDGE($,*,*,#215,.T.);
#276=ORIENTED_EDGE($,*,*,#216,.T.);
#277=ORIENTED_EDGE($,*,*,#217,.T.);
#278=ORIENTED_EDGE($,*,*,#209,.T.);
#279=ORIENTED_EDGE($,*,*,#206,.T.);
#280=ORIENTED_EDGE($,*,*,#203,.T.);
#281=ORIENTED_EDGE($,*,*,#212,.T.);
#282=ORIENTED_EDGE($,*,*,#199,.T.);
#283=ORIENTED_EDGE($,*,*,#214,.F.);
#284=ORIENTED_EDGE($,*,*,#218,.F.);
#285=ORIENTED_EDGE($,*,*,#219,.F.);
#286=ORIENTED_EDGE($,*,*,#220,.F.);
#287=ORIENTED_EDGE($,*,*,#218,.T.);
#288=ORIENTED_EDGE($,*,*,#213,.F.);
#289=ORIENTED_EDGE($,*,*,#191,.F.);
#290=ORIENTED_EDGE($,*,*,#181,.T.);
#291=ORIENTED_EDGE($,*,*,#183,.T.);
#292=ORIENTED_EDGE($,*,*,#186,.F.);
#293=ORIENTED_EDGE($,*,*,#217,.F.);
#294=ORIENTED_EDGE($,*,*,#221,.F.);
#295=ORIENTED_EDGE($,*,*,#222,.F.);
#296=ORIENTED_EDGE($,*,*,#195,.F.);
#297=ORIENTED_EDGE($,*,*,#193,.T.);
#298=ORIENTED_EDGE($,*,*,#223,.F.);
#299=ORIENTED_EDGE($,*,*,#221,.T.);
#300=ORIENTED_EDGE($,*,*,#216,.F.);
#301=ORIENTED_EDGE($,*,*,#224,.F.);
#302=ORIENTED_EDGE($,*,*,#197,.T.);
#303=ORIENTED_EDGE($,*,*,#225,.F.);
#304=ORIENTED_EDGE($,*,*,#224,.T.);
#305=ORIENTED_EDGE($,*,*,#215,.F.);
#306=ORIENTED_EDGE($,*,*,#208,.T.);
#307=ORIENTED_EDGE($,*,*,#211,.T.);
#308=ORIENTED_EDGE($,*,*,#201,.T.);
#309=ORIENTED_EDGE($,*,*,#205,.T.);
#310=ORIENTED_EDGE($,*,*,#196,.F.);
#311=ORIENTED_EDGE($,*,*,#222,.T.);
#312=ORIENTED_EDGE($,*,*,#223,.T.);
#313=ORIENTED_EDGE($,*,*,#225,.T.);
#314=ORIENTED_EDGE($,*,*,#200,.T.);
#315=ORIENTED_EDGE($,*,*,#219,.T.);
#316=ORIENTED_EDGE($,*,*,#220,.T.);
#317=ORIENTED_EDGE($,*,*,#190,.T.);
#318=CYLINDRICAL_SURFACE($,#348,0.109375);
#319=CYLINDRICAL_SURFACE($,#351,0.109375);
#320=CYLINDRICAL_SURFACE($,#354,0.25);
#321=CYLINDRICAL_SURFACE($,#360,0.25);
#322=CYLINDRICAL_SURFACE($,#362,0.75);
#323=CYLINDRICAL_SURFACE($,#365,0.61);
#324=CYLINDRICAL_SURFACE($,#369,0.61);
#325=CYLINDRICAL_SURFACE($,#377,0.215);
#326=CYLINDRICAL_SURFACE($,#380,0.124999999999999);
#327=ADVANCED_FACE($,(#89,#78),#318,.F.);
#328=ADVANCED_FACE($,(#90,#79),#319,.F.);
#329=ADVANCED_FACE($,(#91),#320,.T.);
#330=ADVANCED_FACE($,(#80,#81,#82),#13,.T.);
#331=ADVANCED_FACE($,(#92),#14,.T.);
#332=ADVANCED_FACE($,(#93),#321,.T.);
#333=ADVANCED_FACE($,(#94),#322,.T.);
#334=ADVANCED_FACE($,(#95),#323,.F.);
#335=ADVANCED_FACE($,(#96),#15,.F.);
#336=ADVANCED_FACE($,(#97),#324,.F.);
#337=ADVANCED_FACE($,(#98),#16,.F.);
#338=ADVANCED_FACE($,(#99),#17,.T.);
#339=ADVANCED_FACE($,(#83,#84),#18,.T.);
#340=ADVANCED_FACE($,(#100),#325,.T.);
#341=ADVANCED_FACE($,(#85,#86,#87),#19,.T.);
#342=ADVANCED_FACE($,(#101),#326,.F.);
#343=ADVANCED_FACE($,(#102,#88),#20,.T.);
#344=ADVANCED_FACE($,(#103),#21,.F.);
#345=CLOSED_SHELL($,(#327,#328,#329,#330,#331,#332,#333,#334,#335,#336,
#337,#338,#339,#340,#341,#342,#343,#344));
#346=MANIFOLD_SOLID_BREP('Solid1',#345);
#347=AXIS2_PLACEMENT_3D('placement',#486,#384,#385);
#348=AXIS2_PLACEMENT_3D($,#487,#386,#387);
#349=AXIS2_PLACEMENT_3D($,#489,#388,#389);
#350=AXIS2_PLACEMENT_3D($,#491,#390,#391);
#351=AXIS2_PLACEMENT_3D($,#492,#392,#393);
#352=AXIS2_PLACEMENT_3D($,#494,#394,#395);
#353=AXIS2_PLACEMENT_3D($,#496,#396,#397);
#354=AXIS2_PLACEMENT_3D($,#497,#398,#399);
#355=AXIS2_PLACEMENT_3D($,#500,#400,#401);
#356=AXIS2_PLACEMENT_3D($,#504,#403,#404);
#357=AXIS2_PLACEMENT_3D($,#506,#406,#407);
#358=AXIS2_PLACEMENT_3D($,#510,#409,#410);
#359=AXIS2_PLACEMENT_3D($,#516,#414,#415);
#360=AXIS2_PLACEMENT_3D($,#520,#418,#419);
#361=AXIS2_PLACEMENT_3D($,#522,#420,#421);
#362=AXIS2_PLACEMENT_3D($,#524,#423,#424);
#363=AXIS2_PLACEMENT_3D($,#527,#425,#426);
#364=AXIS2_PLACEMENT_3D($,#531,#428,#429);
#365=AXIS2_PLACEMENT_3D($,#533,#431,#432);
#366=AXIS2_PLACEMENT_3D($,#536,#433,#434);
#367=AXIS2_PLACEMENT_3D($,#540,#436,#437);
#368=AXIS2_PLACEMENT_3D($,#542,#439,#440);
#369=AXIS2_PLACEMENT_3D($,#548,#444,#445);
#370=AXIS2_PLACEMENT_3D($,#550,#446,#447);
#371=AXIS2_PLACEMENT_3D($,#552,#448,#449);
#372=AXIS2_PLACEMENT_3D($,#554,#451,#452);
#373=AXIS2_PLACEMENT_3D($,#557,#455,#456);
#374=AXIS2_PLACEMENT_3D($,#559,#457,#458);
#375=AXIS2_PLACEMENT_3D($,#564,#461,#462);
#376=AXIS2_PLACEMENT_3D($,#566,#464,#465);
#377=AXIS2_PLACEMENT_3D($,#570,#468,#469);
#378=AXIS2_PLACEMENT_3D($,#571,#470,#471);
#379=AXIS2_PLACEMENT_3D($,#572,#472,#473);
#380=AXIS2_PLACEMENT_3D($,#576,#476,#477);
#381=AXIS2_PLACEMENT_3D($,#578,#478,#479);
#382=AXIS2_PLACEMENT_3D($,#580,#481,#482);
#383=AXIS2_PLACEMENT_3D($,#582,#484,#485);
#384=DIRECTION('axis',(0.,0.,1.));
#385=DIRECTION('refdir',(1.,0.,0.));
#386=DIRECTION('center_axis',(1.,6.47549154053749E-016,0.));
#387=DIRECTION('ref_axis',(0.,0.,-1.));
#388=DIRECTION('center_axis',(-1.,0.,0.));
#389=DIRECTION('ref_axis',(0.,0.,-1.));
#390=DIRECTION('center_axis',(1.,4.45447825718504E-016,0.));
#391=DIRECTION('ref_axis',(0.,0.,-1.));
#392=DIRECTION('center_axis',(1.,3.23774577026874E-016,0.));
#393=DIRECTION('ref_axis',(0.,0.,-1.));
#394=DIRECTION('center_axis',(-1.,0.,0.));
#395=DIRECTION('ref_axis',(0.,0.,-1.));
#396=DIRECTION('center_axis',(1.,4.45447825718504E-016,0.));
#397=DIRECTION('ref_axis',(0.,0.,-1.));
#398=DIRECTION('center_axis',(1.,0.,0.));
#399=DIRECTION('ref_axis',(0.,-0.707106781186548,0.707106781186547));
#400=DIRECTION('center_axis',(-1.,0.,0.));
#401=DIRECTION('ref_axis',(0.,-0.707106781186548,0.707106781186547));
#402=DIRECTION($,(-1.,0.,0.));
#403=DIRECTION('center_axis',(1.,4.45447825718504E-016,0.));
#404=DIRECTION('ref_axis',(0.,-0.707106781186548,0.707106781186547));
#405=DIRECTION($,(1.,0.,0.));
#406=DIRECTION('center_axis',(1.,0.,0.));
#407=DIRECTION('ref_axis',(0.,1.,0.));
#408=DIRECTION($,(0.,0.,1.));
#409=DIRECTION('center_axis',(-1.,0.,0.));
#410=DIRECTION('ref_axis',(0.,-0.707106781186548,-0.707106781186547));
#411=DIRECTION($,(0.,-1.,0.));
#412=DIRECTION($,(0.,0.,1.));
#413=DIRECTION($,(0.,1.,0.));
#414=DIRECTION('center_axis',(0.,-1.,0.));
#415=DIRECTION('ref_axis',(1.,0.,0.));
#416=DIRECTION($,(0.,0.,1.));
#417=DIRECTION($,(-1.,0.,0.));
#418=DIRECTION('center_axis',(-1.,0.,0.));
#419=DIRECTION('ref_axis',(0.,-0.707106781186548,-0.707106781186547));
#420=DIRECTION('center_axis',(1.,4.45447825718504E-016,0.));
#421=DIRECTION('ref_axis',(0.,-0.707106781186548,-0.707106781186547));
#422=DIRECTION($,(1.,0.,0.));
#423=DIRECTION('center_axis',(0.,-1.,0.));
#424=DIRECTION('ref_axis',(1.16558847729675E-016,0.,-1.));
#425=DIRECTION('center_axis',(3.82578274823879E-017,-1.,0.));
#426=DIRECTION('ref_axis',(1.16558847729675E-016,0.,-1.));
#427=DIRECTION($,(0.,1.,0.));
#428=DIRECTION('center_axis',(-5.73867412235819E-017,1.,0.));
#429=DIRECTION('ref_axis',(1.16558847729675E-016,0.,-1.));
#430=DIRECTION($,(0.,1.,0.));
#431=DIRECTION('center_axis',(5.82794238648376E-017,-1.,0.));
#432=DIRECTION('ref_axis',(0.,0.,-1.));
#433=DIRECTION('center_axis',(-3.82578274823879E-017,1.,0.));
#434=DIRECTION('ref_axis',(0.,0.,-1.));
#435=DIRECTION($,(5.82794238648376E-017,-1.,0.));
#436=DIRECTION('center_axis',(5.73867412235819E-017,-1.,0.));
#437=DIRECTION('ref_axis',(0.,0.,-1.));
#438=DIRECTION($,(5.82794238648376E-017,-1.,0.));
#439=DIRECTION('center_axis',(-1.16558847729675E-016,-6.79298249203481E-033,
-1.));
#440=DIRECTION('ref_axis',(1.,5.73867412235819E-017,-1.40998324127395E-016));
#441=DIRECTION($,(-1.,-3.82578274823879E-017,1.16558847729675E-016));
#442=DIRECTION($,(1.,5.73867412235819E-017,-1.16558847729675E-016));
#443=DIRECTION($,(5.82794238648376E-017,-1.,0.));
#444=DIRECTION('center_axis',(5.82794238648376E-017,-1.,0.));
#445=DIRECTION('ref_axis',(0.,0.,1.));
#446=DIRECTION('center_axis',(-3.82578274823879E-017,1.,0.));
#447=DIRECTION('ref_axis',(0.,0.,1.));
#448=DIRECTION('center_axis',(5.73867412235819E-017,-1.,0.));
#449=DIRECTION('ref_axis',(0.,0.,1.));
#450=DIRECTION($,(5.82794238648376E-017,-1.,0.));
#451=DIRECTION('center_axis',(0.,0.,1.));
#452=DIRECTION('ref_axis',(-1.,-5.73867412235819E-017,0.));
#453=DIRECTION($,(1.,3.82578274823879E-017,0.));
#454=DIRECTION($,(-1.,-5.73867412235819E-017,0.));
#455=DIRECTION('center_axis',(0.,0.,1.));
#456=DIRECTION('ref_axis',(1.,0.,0.));
#457=DIRECTION('center_axis',(0.,0.,1.));
#458=DIRECTION('ref_axis',(-1.,6.09900947422719E-016,0.));
#459=DIRECTION($,(-1.,-5.73867412235819E-017,0.));
#460=DIRECTION($,(1.,3.82578274823879E-017,0.));
#461=DIRECTION('center_axis',(0.,0.,-1.));
#462=DIRECTION('ref_axis',(1.,-4.89547160464639E-015,0.));
#463=DIRECTION($,(4.45447825718504E-016,-1.,0.));
#464=DIRECTION('center_axis',(-5.73867412235819E-017,1.,0.));
#465=DIRECTION('ref_axis',(-1.,-5.73867412235819E-017,0.));
#466=DIRECTION($,(0.,0.,1.));
#467=DIRECTION($,(1.,5.73867412235819E-017,0.));
#468=DIRECTION('center_axis',(0.,0.,1.));
#469=DIRECTION('ref_axis',(-1.,6.09900947422719E-016,0.));
#470=DIRECTION('center_axis',(0.,0.,-1.));
#471=DIRECTION('ref_axis',(-1.,6.09900947422719E-016,0.));
#472=DIRECTION('center_axis',(-1.,-4.45447825718504E-016,0.));
#473=DIRECTION('ref_axis',(0.,-1.,0.));
#474=DIRECTION($,(0.,0.,1.));
#475=DIRECTION($,(-4.45447825718504E-016,1.,0.));
#476=DIRECTION('center_axis',(0.,0.,1.));
#477=DIRECTION('ref_axis',(1.,-4.89547160464639E-015,0.));
#478=DIRECTION('center_axis',(0.,0.,1.));
#479=DIRECTION('ref_axis',(1.,-4.89547160464639E-015,0.));
#480=DIRECTION($,(0.,0.,1.));
#481=DIRECTION('center_axis',(3.82578274823879E-017,-1.,0.));
#482=DIRECTION('ref_axis',(1.,3.52495810318487E-017,0.));
#483=DIRECTION($,(-1.,-3.82578274823879E-017,0.));
#484=DIRECTION('center_axis',(0.,0.,1.));
#485=DIRECTION('ref_axis',(1.,0.,0.));
#486=CARTESIAN_POINT('',(0.,0.,0.));
#487=CARTESIAN_POINT('Origin',(2.41,-0.691999999999999,0.403));
#488=CARTESIAN_POINT('',(2.5,-0.691999999999999,0.512375));
#489=CARTESIAN_POINT('Origin',(2.5,-0.691999999999999,0.403));
#490=CARTESIAN_POINT('',(2.41,-0.691999999999999,0.512375));
#491=CARTESIAN_POINT('Origin',(2.41,-0.691999999999999,0.403));
#492=CARTESIAN_POINT('Origin',(2.41,-0.379999999999999,1.09));
#493=CARTESIAN_POINT('',(2.5,-0.379999999999999,1.199375));
#494=CARTESIAN_POINT('Origin',(2.5,-0.379999999999999,1.09));
#495=CARTESIAN_POINT('',(2.41,-0.379999999999999,1.199375));
#496=CARTESIAN_POINT('Origin',(2.41,-0.379999999999999,1.09));
#497=CARTESIAN_POINT('Origin',(1.96819435149255,-0.75,1.25));
#498=CARTESIAN_POINT('',(2.5,-1.,1.25));
#499=CARTESIAN_POINT('',(2.5,-0.75,1.5));
#500=CARTESIAN_POINT('Origin',(2.5,-0.75,1.25));
#501=CARTESIAN_POINT('',(2.41,-0.75,1.5));
#502=CARTESIAN_POINT($,(1.96819435149255,-0.75,1.5));
#503=CARTESIAN_POINT('',(2.41,-1.,1.25));
#504=CARTESIAN_POINT('Origin',(2.41,-0.75,1.25));
#505=CARTESIAN_POINT($,(1.96819435149255,-1.,1.25));
#506=CARTESIAN_POINT('Origin',(2.5,-1.,0.));
#507=CARTESIAN_POINT('',(2.5,-1.,0.25));
#508=CARTESIAN_POINT($,(2.5,-1.,0.));
#509=CARTESIAN_POINT('',(2.5,-0.75,0.));
#510=CARTESIAN_POINT('Origin',(2.5,-0.75,0.25));
#511=CARTESIAN_POINT('',(2.5,-0.215,0.));
#512=CARTESIAN_POINT($,(2.5,-0.215,0.));
#513=CARTESIAN_POINT('',(2.5,-0.215,1.5));
#514=CARTESIAN_POINT($,(2.5,-0.215,0.));
#515=CARTESIAN_POINT($,(2.5,-0.215,1.5));
#516=CARTESIAN_POINT('Origin',(2.41,-1.,0.));
#517=CARTESIAN_POINT('',(2.41,-1.,0.25));
#518=CARTESIAN_POINT($,(2.41,-1.,0.));
#519=CARTESIAN_POINT($,(1.96819435149255,-1.,0.25));
#520=CARTESIAN_POINT('Origin',(1.96819435149255,-0.75,0.25));
#521=CARTESIAN_POINT('',(2.41,-0.75,0.));
#522=CARTESIAN_POINT('Origin',(2.41,-0.75,0.25));
#523=CARTESIAN_POINT($,(1.96819435149255,-0.75,0.));
#524=CARTESIAN_POINT('Origin',(0.75,4.30400559176864E-017,0.75));
#525=CARTESIAN_POINT('',(0.75,-0.0900000000000001,1.5));
#526=CARTESIAN_POINT('',(0.75,-0.0900000000000001,0.));
#527=CARTESIAN_POINT('Origin',(0.75,-0.0900000000000001,0.75));
#528=CARTESIAN_POINT('',(0.75,4.30400559176864E-017,1.5));
#529=CARTESIAN_POINT($,(0.75,4.37095678986282E-017,1.5));
#530=CARTESIAN_POINT('',(0.75,4.30400559176864E-017,0.));
#531=CARTESIAN_POINT('Origin',(0.75,1.31128703695885E-016,0.75));
#532=CARTESIAN_POINT($,(0.75,4.37095678986282E-017,0.));
#533=CARTESIAN_POINT('Origin',(1.5,8.60801118353728E-017,0.75));
#534=CARTESIAN_POINT('',(1.5,-0.0900000000000001,1.36));
#535=CARTESIAN_POINT('',(1.5,-0.0900000000000001,0.14));
#536=CARTESIAN_POINT('Origin',(1.5,-0.0900000000000001,0.75));
#537=CARTESIAN_POINT('',(1.5,8.60801118353728E-017,1.36));
#538=CARTESIAN_POINT($,(1.5,8.60801118353728E-017,1.36));
#539=CARTESIAN_POINT('',(1.5,8.60801118353728E-017,0.14));
#540=CARTESIAN_POINT('Origin',(1.5,8.53793559619871E-017,0.75));
#541=CARTESIAN_POINT($,(1.5,8.60801118353728E-017,0.14));
#542=CARTESIAN_POINT('Origin',(0.75,4.30400559176864E-017,0.14));
#543=CARTESIAN_POINT('',(0.75,-0.0900000000000001,0.14));
#544=CARTESIAN_POINT($,(0.375,-0.0900000000000001,0.14));
#545=CARTESIAN_POINT('',(0.75,4.30400559176864E-017,0.14));
#546=CARTESIAN_POINT($,(1.5175,8.70843798067855E-017,0.14));
#547=CARTESIAN_POINT($,(0.75,4.30400559176864E-017,0.14));
#548=CARTESIAN_POINT('Origin',(0.75,4.30400559176864E-017,0.75));
#549=CARTESIAN_POINT('',(0.75,-0.0900000000000001,1.36));
#550=CARTESIAN_POINT('Origin',(0.75,-0.0900000000000001,0.75));
#551=CARTESIAN_POINT('',(0.75,4.30400559176864E-017,1.36));
#552=CARTESIAN_POINT('Origin',(0.75,4.16697880633589E-017,0.75));
#553=CARTESIAN_POINT($,(0.75,4.30400559176864E-017,1.36));
#554=CARTESIAN_POINT('Origin',(1.5,8.60801118353728E-017,1.36));
#555=CARTESIAN_POINT($,(0.75,-0.0900000000000001,1.36));
#556=CARTESIAN_POINT($,(1.8925,1.08604407765629E-016,1.36));
#557=CARTESIAN_POINT('Origin',(1.5263887029851,-0.192425589451045,1.5));
#558=CARTESIAN_POINT('',(2.285,1.31128703695885E-016,1.5));
#559=CARTESIAN_POINT('Origin',(2.285,-0.215,1.5));
#560=CARTESIAN_POINT($,(0.,0.,1.5));
#561=CARTESIAN_POINT('',(2.285,-0.0900000000000001,1.5));
#562=CARTESIAN_POINT($,(2.285,-0.0900000000000001,1.5));
#563=CARTESIAN_POINT('',(2.41,-0.215,1.5));
#564=CARTESIAN_POINT('Origin',(2.285,-0.214999999999999,1.5));
#565=CARTESIAN_POINT($,(2.41,-1.,1.5));
#566=CARTESIAN_POINT('Origin',(2.285,1.31128703695885E-016,0.));
#567=CARTESIAN_POINT('',(2.285,1.31128703695885E-016,0.));
#568=CARTESIAN_POINT($,(2.285,1.31128703695885E-016,0.));
#569=CARTESIAN_POINT($,(0.,0.,0.));
#570=CARTESIAN_POINT('Origin',(2.285,-0.215,0.));
#571=CARTESIAN_POINT('Origin',(2.285,-0.215,0.));
#572=CARTESIAN_POINT('Origin',(2.41,-0.215,0.));
#573=CARTESIAN_POINT('',(2.41,-0.215,0.));
#574=CARTESIAN_POINT($,(2.41,-0.215,0.));
#575=CARTESIAN_POINT($,(2.41,-1.,0.));
#576=CARTESIAN_POINT('Origin',(2.285,-0.214999999999999,0.));
#577=CARTESIAN_POINT('',(2.285,-0.0900000000000001,0.));
#578=CARTESIAN_POINT('Origin',(2.285,-0.214999999999999,0.));
#579=CARTESIAN_POINT($,(2.285,-0.0900000000000001,0.));
#580=CARTESIAN_POINT('Origin',(0.,-0.0900000000000001,0.));
#581=CARTESIAN_POINT($,(2.285,-0.0900000000000001,0.));
#582=CARTESIAN_POINT('Origin',(1.5263887029851,-0.192425589451045,0.));
#583=UNCERTAINTY_MEASURE_WITH_UNIT(LENGTH_MEASURE(0.000393700787401575),
#585,'DISTANCE_ACCURACY_VALUE',
'Maximum model space distance between geometric entities at asserted c
onnectivities');
#584=(
GEOMETRIC_REPRESENTATION_CONTEXT(3)
GLOBAL_UNCERTAINTY_ASSIGNED_CONTEXT((#583))
GLOBAL_UNIT_ASSIGNED_CONTEXT((#585,#591,#588))
REPRESENTATION_CONTEXT('','3D')
);
#585=(
CONVERSION_BASED_UNIT('__CONSTANT UNIT inch',#587)
LENGTH_UNIT()
NAMED_UNIT(#590)
);
#586=(
LENGTH_UNIT()
NAMED_UNIT(*)
SI_UNIT(.MILLI.,.METRE.)
);
#587=LENGTH_MEASURE_WITH_UNIT(LENGTH_MEASURE(25.4),#586);
#588=(
NAMED_UNIT(*)
SI_UNIT($,.STERADIAN.)
SOLID_ANGLE_UNIT()
);
#589=DIMENSIONAL_EXPONENTS(0.,0.,0.,0.,0.,0.,0.);
#590=DIMENSIONAL_EXPONENTS(1.,0.,0.,0.,0.,0.,0.);
#591=(
CONVERSION_BASED_UNIT('degree',#593)
NAMED_UNIT(#589)
PLANE_ANGLE_UNIT()
);
#592=(
NAMED_UNIT(*)
PLANE_ANGLE_UNIT()
SI_UNIT($,.RADIAN.)
);
#593=PLANE_ANGLE_MEASURE_WITH_UNIT(PLANE_ANGLE_MEASURE(0.01745329252),#592);
#594=SHAPE_DEFINITION_REPRESENTATION(#595,#596);
#595=PRODUCT_DEFINITION_SHAPE('',$,#598);
#596=SHAPE_REPRESENTATION('',(#347),#584);
#597=PRODUCT_DEFINITION_CONTEXT('3D Mechanical Parts',#601,'design');
#598=PRODUCT_DEFINITION('707034','707034',#599,#597);
#599=PRODUCT_DEFINITION_FORMATION('',$,#603);
#600=APPLICATION_PROTOCOL_DEFINITION('international standard',
'automotive_design',2009,#601);
#601=APPLICATION_CONTEXT(
'Core Data for Automotive Mechanical Design Process');
#602=PRODUCT_CONTEXT('3D Mechanical Parts',#601,'mechanical');
#603=PRODUCT('707034','707034',$,(#602));
#604=PRESENTATION_STYLE_ASSIGNMENT((#605));
#605=SURFACE_STYLE_USAGE(.BOTH.,#606);
#606=SURFACE_SIDE_STYLE($,(#607));
#607=SURFACE_STYLE_FILL_AREA(#608);
#608=FILL_AREA_STYLE($,(#609));
#609=FILL_AREA_STYLE_COLOUR($,#610);
#610=COLOUR_RGB('',0.749019607843137,0.749019607843137,0.749019607843137);
ENDSEC;
END-ISO-10303-21;
