ISO-10303-21;
HEADER;
FILE_DESCRIPTION (( 'STEP AP214' ),
    '1' );
FILE_NAME ('GN-PT5M3A.STEP',
    '2019-05-23T19:36:49',
    ( '' ),
    ( '' ),
    'SwSTEP 2.0',
    'SolidWorks 2018',
    '' );
FILE_SCHEMA (( 'AUTOMOTIVE_DESIGN' ));
ENDSEC;

DATA;
#1 = APPLICATION_PROTOCOL_DEFINITION ( 'draft international standard', 'automotive_design', 1998, #143 ) ;
#2 = CARTESIAN_POINT ( 'NONE',  ( 0.8464566929133857665, 6.569292665508863319E-17, 0.0000000000000000000 ) ) ;
#3 = ORIENTED_EDGE ( 'NONE', *, *, #187, .T. ) ;
#4 = PRESENTATION_STYLE_ASSIGNMENT (( #250 ) ) ;
#5 = ORIENTED_EDGE ( 'NONE', *, *, #82, .T. ) ;
#6 = DIRECTION ( 'NONE',  ( 0.0000000000000000000, 0.0000000000000000000, -1.000000000000000000 ) ) ;
#7 = CARTESIAN_POINT ( 'NONE',  ( 1.751968503937007871, -0.01377952755905511792, 0.0000000000000000000 ) ) ;
#8 = AXIS2_PLACEMENT_3D ( 'NONE', #135, #43, #113 ) ;
#9 = ADVANCED_FACE ( 'NONE', ( #197, #244, #189 ), #198, .T. ) ;
#10 = ORIENTED_EDGE ( 'NONE', *, *, #187, .F. ) ;
#11 = EDGE_CURVE ( 'NONE', #86, #86, #219, .T. ) ;
#12 = DIRECTION ( 'NONE',  ( 1.000000000000000000, 0.0000000000000000000, 0.0000000000000000000 ) ) ;
#13 = AXIS2_PLACEMENT_3D ( 'NONE', #38, #129, #253 ) ;
#14 = EDGE_LOOP ( 'NONE', ( #208 ) ) ;
#15 = FACE_OUTER_BOUND ( 'NONE', #74, .T. ) ;
#16 = ORIENTED_EDGE ( 'NONE', *, *, #183, .F. ) ;
#17 = VERTEX_POINT ( 'NONE', #228 ) ;
#18 = EDGE_LOOP ( 'NONE', ( #54 ) ) ;
#19 = DIRECTION ( 'NONE',  ( 0.0000000000000000000, 0.0000000000000000000, 1.000000000000000000 ) ) ;
#20 = VERTEX_POINT ( 'NONE', #235 ) ;
#21 = ORIENTED_EDGE ( 'NONE', *, *, #183, .T. ) ;
#22 = DIRECTION ( 'NONE',  ( 1.000000000000000000, 0.0000000000000000000, 0.0000000000000000000 ) ) ;
#23 = DIRECTION ( 'NONE',  ( 0.0000000000000000000, 1.000000000000000000, 0.0000000000000000000 ) ) ;
#24 = FACE_OUTER_BOUND ( 'NONE', #100, .T. ) ;
#25 = DIRECTION ( 'NONE',  ( -8.673617379884035472E-17, 1.000000000000000000, 0.0000000000000000000 ) ) ;
#26 = DIRECTION ( 'NONE',  ( -1.000000000000000000, -7.760931800182566074E-17, -0.0000000000000000000 ) ) ;
#27 = VERTEX_POINT ( 'NONE', #231 ) ;
#28 = FACE_OUTER_BOUND ( 'NONE', #104, .T. ) ;
#29 = ORIENTED_EDGE ( 'NONE', *, *, #119, .F. ) ;
#30 = EDGE_CURVE ( 'NONE', #150, #150, #66, .T. ) ;
#31 = AXIS2_PLACEMENT_3D ( 'NONE', #7, #153, #195 ) ;
#32 = COLOUR_RGB ( '',0.8352941176470588536, 0.8352941176470588536, 0.9176470588235293713 ) ;
#33 = PRODUCT_DEFINITION_CONTEXT ( 'detailed design', #133, 'design' ) ;
#34 = FILL_AREA_STYLE ('',( #211 ) ) ;
#35 = SPHERICAL_SURFACE ( 'NONE', #226, 0.07874015748031495954 ) ;
#36 =( LENGTH_UNIT ( ) NAMED_UNIT ( * ) SI_UNIT ( $, .METRE. ) );
#37 = ADVANCED_FACE ( 'NONE', ( #245, #192 ), #207, .T. ) ;
#38 = CARTESIAN_POINT ( 'NONE',  ( 0.8464566929133857665, 0.01377952755905511792, 0.0000000000000000000 ) ) ;
#39 = MECHANICAL_DESIGN_GEOMETRIC_PRESENTATION_REPRESENTATION (  '', ( #132 ), #101 ) ;
#40 =( CONVERSION_BASED_UNIT ( 'INCH', #243 ) LENGTH_UNIT ( ) NAMED_UNIT ( #205 ) );
#41 = DIRECTION ( 'NONE',  ( 0.0000000000000000000, -1.000000000000000000, 0.0000000000000000000 ) ) ;
#42 = DIRECTION ( 'NONE',  ( 1.000000000000000000, 7.760931800182541422E-17, -0.0000000000000000000 ) ) ;
#43 = DIRECTION ( 'NONE',  ( 1.000000000000000000, 0.0000000000000000000, 0.0000000000000000000 ) ) ;
#44 = DIRECTION ( 'NONE',  ( 0.0000000000000000000, 0.0000000000000000000, 1.000000000000000000 ) ) ;
#45 =( GEOMETRIC_REPRESENTATION_CONTEXT ( 3 ) GLOBAL_UNCERTAINTY_ASSIGNED_CONTEXT ( ( #116 ) ) GLOBAL_UNIT_ASSIGNED_CONTEXT ( ( #40, #269, #147 ) ) REPRESENTATION_CONTEXT ( 'NONE', 'WORKASPACE' ) );
#46 = CIRCLE ( 'NONE', #246, 0.02952755905511811330 ) ;
#47 = ORIENTED_EDGE ( 'NONE', *, *, #56, .T. ) ;
#48 = DIRECTION ( 'NONE',  ( 0.0000000000000000000, 0.0000000000000000000, -1.000000000000000000 ) ) ;
#49 = DIRECTION ( 'NONE',  ( 0.0000000000000000000, 0.0000000000000000000, 1.000000000000000000 ) ) ;
#50 = CARTESIAN_POINT ( 'NONE',  ( 0.05905511811023624047, 4.583227441052697865E-18, 0.0000000000000000000 ) ) ;
#51 = EDGE_LOOP ( 'NONE', ( #179 ) ) ;
#52 = CARTESIAN_POINT ( 'NONE',  ( 0.8385826771653550615, 6.508182966294832432E-17, 0.0000000000000000000 ) ) ;
#53 = SURFACE_STYLE_FILL_AREA ( #190 ) ;
#54 = ORIENTED_EDGE ( 'NONE', *, *, #119, .T. ) ;
#55 = EDGE_LOOP ( 'NONE', ( #124 ) ) ;
#56 = EDGE_CURVE ( 'NONE', #17, #17, #229, .T. ) ;
#57 = ADVANCED_FACE ( 'NONE', ( #182, #259 ), #65, .T. ) ;
#58 = ADVANCED_FACE ( 'NONE', ( #159 ), #240, .T. ) ;
#59 =( LENGTH_UNIT ( ) NAMED_UNIT ( * ) SI_UNIT ( $, .METRE. ) );
#60 = CARTESIAN_POINT ( 'NONE',  ( 0.0000000000000000000, 0.0000000000000000000, 0.0000000000000000000 ) ) ;
#61 = UNCERTAINTY_MEASURE_WITH_UNIT (LENGTH_MEASURE( 1.000000000000000082E-05 ), #81, 'distance_accuracy_value', 'NONE');
#62 = DIRECTION ( 'NONE',  ( -8.673617379884035472E-17, 1.000000000000000000, 0.0000000000000000000 ) ) ;
#63 = SURFACE_SIDE_STYLE ('',( #53 ) ) ;
#64 = CARTESIAN_POINT ( 'NONE',  ( 0.8464566929133857665, 6.569292665508863319E-17, 0.0000000000000000000 ) ) ;
#65 = CYLINDRICAL_SURFACE ( 'NONE', #200, 0.01181102362204724393 ) ;
#66 = CIRCLE ( 'NONE', #93, 0.09055118110236287654 ) ;
#67 = DIRECTION ( 'NONE',  ( -1.000000000000000000, -0.0000000000000000000, -0.0000000000000000000 ) ) ;
#68 = CARTESIAN_POINT ( 'NONE',  ( 0.07874015748030631368, 3.681102814897882179E-08, 0.0000000000000000000 ) ) ;
#69 = ORIENTED_EDGE ( 'NONE', *, *, #82, .F. ) ;
#70 = DIRECTION ( 'NONE',  ( 1.000000000000000000, 7.760931800182541422E-17, -0.0000000000000000000 ) ) ;
#71 = AXIS2_PLACEMENT_3D ( 'NONE', #83, #67, #177 ) ;
#72 = DIRECTION ( 'NONE',  ( -9.427844978134968112E-17, 1.000000000000000000, 0.0000000000000000000 ) ) ;
#73 = AXIS2_PLACEMENT_3D ( 'NONE', #60, #19, #210 ) ;
#74 = EDGE_LOOP ( 'NONE', ( #221 ) ) ;
#75 = DIMENSIONAL_EXPONENTS ( 1.000000000000000000, 0.0000000000000000000, 0.0000000000000000000, 0.0000000000000000000, 0.0000000000000000000, 0.0000000000000000000, 0.0000000000000000000 ) ;
#76 = FACE_OUTER_BOUND ( 'NONE', #184, .T. ) ;
#77 = AXIS2_PLACEMENT_3D ( 'NONE', #255, #42, #62 ) ;
#78 = AXIS2_PLACEMENT_3D ( 'NONE', #237, #22, #6 ) ;
#79 = CARTESIAN_POINT ( 'NONE',  ( 0.8464566929133857665, 6.569292665508863319E-17, -0.09055118110236287654 ) ) ;
#80 = DIRECTION ( 'NONE',  ( -1.000000000000000000, 0.0000000000000000000, 0.0000000000000000000 ) ) ;
#81 =( CONVERSION_BASED_UNIT ( 'INCH', #178 ) LENGTH_UNIT ( ) NAMED_UNIT ( #186 ) );
#82 = EDGE_CURVE ( 'NONE', #213, #213, #223, .T. ) ;
#83 = CARTESIAN_POINT ( 'NONE',  ( 0.8464566929133857665, -0.01377952755905511792, 0.0000000000000000000 ) ) ;
#84 = CARTESIAN_POINT ( 'NONE',  ( 1.751968503937007871, -0.01377952755905511792, 0.0000000000000000000 ) ) ;
#85 = PRODUCT_DEFINITION_FORMATION_WITH_SPECIFIED_SOURCE ( 'ANY', '', #247, .NOT_KNOWN. ) ;
#86 = VERTEX_POINT ( 'NONE', #256 ) ;
#87 = EDGE_LOOP ( 'NONE', ( #233 ) ) ;
#88 = PLANE ( 'NONE',  #89 ) ;
#89 = AXIS2_PLACEMENT_3D ( 'NONE', #84, #12, #48 ) ;
#90 = CARTESIAN_POINT ( 'NONE',  ( 0.05905511811023624047, 0.0000000000000000000, 0.0000000000000000000 ) ) ;
#91 = DIRECTION ( 'NONE',  ( 0.0000000000000000000, 0.0000000000000000000, -1.000000000000000000 ) ) ;
#92 = FACE_OUTER_BOUND ( 'NONE', #127, .T. ) ;
#93 = AXIS2_PLACEMENT_3D ( 'NONE', #64, #114, #175 ) ;
#94 = FACE_OUTER_BOUND ( 'NONE', #18, .T. ) ;
#95 = EDGE_LOOP ( 'NONE', ( #203 ) ) ;
#96 = AXIS2_PLACEMENT_3D ( 'NONE', #90, #156, #196 ) ;
#97 = CARTESIAN_POINT ( 'NONE',  ( 0.06692913385826936012, 0.09842519685039370636, 0.0000000000000000000 ) ) ;
#98 = CYLINDRICAL_SURFACE ( 'NONE', #112, 0.09842519685039370636 ) ;
#99 = CARTESIAN_POINT ( 'NONE',  ( 0.0000000000000000000, 0.0000000000000000000, 0.0000000000000000000 ) ) ;
#100 = EDGE_LOOP ( 'NONE', ( #69 ) ) ;
#101 =( GEOMETRIC_REPRESENTATION_CONTEXT ( 3 ) GLOBAL_UNCERTAINTY_ASSIGNED_CONTEXT ( ( #61 ) ) GLOBAL_UNIT_ASSIGNED_CONTEXT ( ( #81, #130, #168 ) ) REPRESENTATION_CONTEXT ( 'NONE', 'WORKASPACE' ) );
#102 = CARTESIAN_POINT ( 'NONE',  ( 0.8464566929133857665, 0.01377952755905511792, -0.01181102362204724393 ) ) ;
#103 = AXIS2_PLACEMENT_3D ( 'NONE', #50, #173, #106 ) ;
#104 = EDGE_LOOP ( 'NONE', ( #29 ) ) ;
#105 = AXIS2_PLACEMENT_3D ( 'NONE', #99, #80, #206 ) ;
#106 = DIRECTION ( 'NONE',  ( -7.760931800182566074E-17, 1.000000000000000000, 0.0000000000000000000 ) ) ;
#107 = COLOUR_RGB ( '',0.8352941176470588536, 0.8352941176470588536, 0.9176470588235293713 ) ;
#108 = CIRCLE ( 'NONE', #13, 0.01181102362204724393 ) ;
#109 = ADVANCED_FACE ( 'NONE', ( #121, #15 ), #141, .T. ) ;
#110 = EDGE_LOOP ( 'NONE', ( #5 ) ) ;
#111 = DIRECTION ( 'NONE',  ( -1.000000000000000000, 0.0000000000000000000, 0.0000000000000000000 ) ) ;
#112 = AXIS2_PLACEMENT_3D ( 'NONE', #262, #242, #138 ) ;
#113 = DIRECTION ( 'NONE',  ( 0.0000000000000000000, 0.0000000000000000000, -1.000000000000000000 ) ) ;
#114 = DIRECTION ( 'NONE',  ( 1.000000000000000000, 0.0000000000000000000, 0.0000000000000000000 ) ) ;
#115 = PRESENTATION_LAYER_ASSIGNMENT (  '', '', ( #164 ) ) ;
#116 = UNCERTAINTY_MEASURE_WITH_UNIT (LENGTH_MEASURE( 1.000000000000000082E-05 ), #40, 'distance_accuracy_value', 'NONE');
#117 = ORIENTED_EDGE ( 'NONE', *, *, #234, .F. ) ;
#118 = DIRECTION ( 'NONE',  ( -1.000000000000000000, -7.760931800182519235E-17, 0.0000000000000000000 ) ) ;
#119 = EDGE_CURVE ( 'NONE', #20, #20, #46, .T. ) ;
#120 = LENGTH_MEASURE_WITH_UNIT ( LENGTH_MEASURE( 0.02539999999999999897 ), #193 );
#121 = FACE_OUTER_BOUND ( 'NONE', #110, .T. ) ;
#122 = PRODUCT_RELATED_PRODUCT_CATEGORY ( 'part', '', ( #247 ) ) ;
#123 = AXIS2_PLACEMENT_3D ( 'NONE', #263, #26, #72 ) ;
#124 = ORIENTED_EDGE ( 'NONE', *, *, #209, .F. ) ;
#125 = ADVANCED_FACE ( 'NONE', ( #94 ), #35, .T. ) ;
#126 = CIRCLE ( 'NONE', #123, 0.09055118110236079487 ) ;
#127 = EDGE_LOOP ( 'NONE', ( #3 ) ) ;
#128 =( NAMED_UNIT ( * ) PLANE_ANGLE_UNIT ( ) SI_UNIT ( $, .RADIAN. ) );
#129 = DIRECTION ( 'NONE',  ( 1.000000000000000000, 0.0000000000000000000, 0.0000000000000000000 ) ) ;
#130 =( NAMED_UNIT ( * ) PLANE_ANGLE_UNIT ( ) SI_UNIT ( $, .RADIAN. ) );
#131 = EDGE_LOOP ( 'NONE', ( #236 ) ) ;
#132 = STYLED_ITEM ( 'NONE', ( #161 ), #215 ) ;
#133 = APPLICATION_CONTEXT ( 'automotive_design' ) ;
#134 = ORIENTED_EDGE ( 'NONE', *, *, #234, .T. ) ;
#135 = CARTESIAN_POINT ( 'NONE',  ( 1.751968503937007871, 0.01377952755905511792, 0.0000000000000000000 ) ) ;
#136 = ADVANCED_FACE ( 'NONE', ( #92, #162 ), #98, .T. ) ;
#137 = ORIENTED_EDGE ( 'NONE', *, *, #172, .F. ) ;
#138 = DIRECTION ( 'NONE',  ( 0.0000000000000000000, -1.000000000000000000, 0.0000000000000000000 ) ) ;
#139 = DIRECTION ( 'NONE',  ( 0.0000000000000000000, 1.000000000000000000, 0.0000000000000000000 ) ) ;
#140 = FACE_BOUND ( 'NONE', #225, .T. ) ;
#141 = CYLINDRICAL_SURFACE ( 'NONE', #214, 0.01181102362204724393 ) ;
#142 = VERTEX_POINT ( 'NONE', #248 ) ;
#143 = APPLICATION_CONTEXT ( 'automotive_design' ) ;
#144 = PRESENTATION_LAYER_ASSIGNMENT (  '', '', ( #132 ) ) ;
#145 = CIRCLE ( 'NONE', #77, 0.09842519685039370636 ) ;
#146 = ADVANCED_FACE ( 'NONE', ( #24 ), #88, .T. ) ;
#147 =( NAMED_UNIT ( * ) SI_UNIT ( $, .STERADIAN. ) SOLID_ANGLE_UNIT ( ) );
#148 = DIRECTION ( 'NONE',  ( -1.000000000000000000, -7.760931800182519235E-17, 0.0000000000000000000 ) ) ;
#149 = FILL_AREA_STYLE_COLOUR ( '', #32 ) ;
#150 = VERTEX_POINT ( 'NONE', #79 ) ;
#151 = AXIS2_PLACEMENT_3D ( 'NONE', #180, #70, #25 ) ;
#152 = CARTESIAN_POINT ( 'NONE',  ( 1.751968503937007871, -0.01377952755905511792, 0.0000000000000000000 ) ) ;
#153 = DIRECTION ( 'NONE',  ( -1.000000000000000000, 0.0000000000000000000, 0.0000000000000000000 ) ) ;
#154 = CIRCLE ( 'NONE', #265, 0.09842519685039370636 ) ;
#155 = EDGE_LOOP ( 'NONE', ( #21 ) ) ;
#156 = DIRECTION ( 'NONE',  ( -1.000000000000000000, -7.760931800182566074E-17, -0.0000000000000000000 ) ) ;
#157 = PLANE ( 'NONE',  #103 ) ;
#158 = ADVANCED_FACE ( 'NONE', ( #218, #202 ), #157, .F. ) ;
#159 = FACE_OUTER_BOUND ( 'NONE', #51, .T. ) ;
#160 = PRODUCT_DEFINITION_SHAPE ( 'NONE', 'NONE',  #249 ) ;
#161 = PRESENTATION_STYLE_ASSIGNMENT (( #212 ) ) ;
#162 = FACE_OUTER_BOUND ( 'NONE', #224, .T. ) ;
#163 = EDGE_LOOP ( 'NONE', ( #10 ) ) ;
#164 = STYLED_ITEM ( 'NONE', ( #4 ), #267 ) ;
#165 = CYLINDRICAL_SURFACE ( 'NONE', #105, 0.02952755905511811330 ) ;
#166 = EDGE_LOOP ( 'NONE', ( #241 ) ) ;
#167 = CARTESIAN_POINT ( 'NONE',  ( 1.751968503937007871, -0.01377952755905511792, -0.01181102362204724393 ) ) ;
#168 =( NAMED_UNIT ( * ) SI_UNIT ( $, .STERADIAN. ) SOLID_ANGLE_UNIT ( ) );
#169 = CARTESIAN_POINT ( 'NONE',  ( 1.751968503937007871, 0.01377952755905511792, -0.01181102362204724393 ) ) ;
#170 = EDGE_LOOP ( 'NONE', ( #137 ) ) ;
#171 = PRODUCT_CONTEXT ( 'NONE', #143, 'mechanical' ) ;
#172 = EDGE_CURVE ( 'NONE', #204, #204, #181, .T. ) ;
#173 = DIRECTION ( 'NONE',  ( 1.000000000000000000, 7.760931800182566074E-17, 0.0000000000000000000 ) ) ;
#174 = SHAPE_DEFINITION_REPRESENTATION ( #160, #215 ) ;
#175 = DIRECTION ( 'NONE',  ( 0.0000000000000000000, 0.0000000000000000000, -1.000000000000000000 ) ) ;
#176 = CARTESIAN_POINT ( 'NONE',  ( 0.005746062992124826435, 0.0000000000000000000, 0.0000000000000000000 ) ) ;
#177 = DIRECTION ( 'NONE',  ( 0.0000000000000000000, 0.0000000000000000000, -1.000000000000000000 ) ) ;
#178 = LENGTH_MEASURE_WITH_UNIT ( LENGTH_MEASURE( 0.02539999999999999897 ), #59 );
#179 = ORIENTED_EDGE ( 'NONE', *, *, #172, .T. ) ;
#180 = CARTESIAN_POINT ( 'NONE',  ( 0.06692913385826936012, 5.194324433193172366E-18, 0.0000000000000000000 ) ) ;
#181 = CIRCLE ( 'NONE', #185, 0.01181102362204724393 ) ;
#182 = FACE_OUTER_BOUND ( 'NONE', #170, .T. ) ;
#183 = EDGE_CURVE ( 'NONE', #27, #27, #126, .T. ) ;
#184 = EDGE_LOOP ( 'NONE', ( #117 ) ) ;
#185 = AXIS2_PLACEMENT_3D ( 'NONE', #199, #222, #91 ) ;
#186 = DIMENSIONAL_EXPONENTS ( 1.000000000000000000, 0.0000000000000000000, 0.0000000000000000000, 0.0000000000000000000, 0.0000000000000000000, 0.0000000000000000000, 0.0000000000000000000 ) ;
#187 = EDGE_CURVE ( 'NONE', #142, #142, #154, .T. ) ;
#188 = VERTEX_POINT ( 'NONE', #97 ) ;
#189 = FACE_BOUND ( 'NONE', #166, .T. ) ;
#190 = FILL_AREA_STYLE ('',( #149 ) ) ;
#191 = SURFACE_SIDE_STYLE ('',( #201 ) ) ;
#192 = FACE_BOUND ( 'NONE', #131, .T. ) ;
#193 =( LENGTH_UNIT ( ) NAMED_UNIT ( * ) SI_UNIT ( $, .METRE. ) );
#194 = AXIS2_PLACEMENT_3D ( 'NONE', #2, #148, #41 ) ;
#195 = DIRECTION ( 'NONE',  ( 0.0000000000000000000, 0.0000000000000000000, -1.000000000000000000 ) ) ;
#196 = DIRECTION ( 'NONE',  ( 0.0000000000000000000, -1.000000000000000000, 0.0000000000000000000 ) ) ;
#197 = FACE_OUTER_BOUND ( 'NONE', #95, .T. ) ;
#198 = PLANE ( 'NONE',  #78 ) ;
#199 = CARTESIAN_POINT ( 'NONE',  ( 1.751968503937007871, 0.01377952755905511792, 0.0000000000000000000 ) ) ;
#200 = AXIS2_PLACEMENT_3D ( 'NONE', #258, #111, #261 ) ;
#201 = SURFACE_STYLE_FILL_AREA ( #34 ) ;
#202 = FACE_BOUND ( 'NONE', #14, .T. ) ;
#203 = ORIENTED_EDGE ( 'NONE', *, *, #30, .T. ) ;
#204 = VERTEX_POINT ( 'NONE', #169 ) ;
#205 = DIMENSIONAL_EXPONENTS ( 1.000000000000000000, 0.0000000000000000000, 0.0000000000000000000, 0.0000000000000000000, 0.0000000000000000000, 0.0000000000000000000, 0.0000000000000000000 ) ;
#206 = DIRECTION ( 'NONE',  ( 0.0000000000000000000, 0.0000000000000000000, 1.000000000000000000 ) ) ;
#207 = CONICAL_SURFACE ( 'NONE', #194, 0.09055118110236287654, 0.7853981633974528309 ) ;
#208 = ORIENTED_EDGE ( 'NONE', *, *, #56, .F. ) ;
#209 = EDGE_CURVE ( 'NONE', #227, #227, #108, .T. ) ;
#210 = DIRECTION ( 'NONE',  ( 1.000000000000000000, 0.0000000000000000000, 0.0000000000000000000 ) ) ;
#211 = FILL_AREA_STYLE_COLOUR ( '', #107 ) ;
#212 = SURFACE_STYLE_USAGE ( .BOTH. , #191 ) ;
#213 = VERTEX_POINT ( 'NONE', #167 ) ;
#214 = AXIS2_PLACEMENT_3D ( 'NONE', #152, #217, #44 ) ;
#215 = ADVANCED_BREP_SHAPE_REPRESENTATION ( 'GN-PT5M3A', ( #267, #73 ), #232 ) ;
#216 = ADVANCED_FACE ( 'NONE', ( #140, #76 ), #257, .T. ) ;
#217 = DIRECTION ( 'NONE',  ( -1.000000000000000000, 0.0000000000000000000, 0.0000000000000000000 ) ) ;
#218 = FACE_OUTER_BOUND ( 'NONE', #155, .T. ) ;
#219 = CIRCLE ( 'NONE', #71, 0.01181102362204724393 ) ;
#220 = DIRECTION ( 'NONE',  ( -1.000000000000000000, 0.0000000000000000000, 0.0000000000000000000 ) ) ;
#221 = ORIENTED_EDGE ( 'NONE', *, *, #11, .F. ) ;
#222 = DIRECTION ( 'NONE',  ( 1.000000000000000000, 0.0000000000000000000, 0.0000000000000000000 ) ) ;
#223 = CIRCLE ( 'NONE', #31, 0.01181102362204724393 ) ;
#224 = EDGE_LOOP ( 'NONE', ( #134 ) ) ;
#225 = EDGE_LOOP ( 'NONE', ( #16 ) ) ;
#226 = AXIS2_PLACEMENT_3D ( 'NONE', #68, #260, #23 ) ;
#227 = VERTEX_POINT ( 'NONE', #102 ) ;
#228 = CARTESIAN_POINT ( 'NONE',  ( 0.05905511811023624047, -0.02952755905511811330, 0.0000000000000000000 ) ) ;
#229 = CIRCLE ( 'NONE', #96, 0.02952755905511811330 ) ;
#230 =( CONVERSION_BASED_UNIT ( 'INCH', #120 ) LENGTH_UNIT ( ) NAMED_UNIT ( #75 ) );
#231 = CARTESIAN_POINT ( 'NONE',  ( 0.05905511811023623353, 0.09055118110236079487, 0.0000000000000000000 ) ) ;
#232 =( GEOMETRIC_REPRESENTATION_CONTEXT ( 3 ) GLOBAL_UNCERTAINTY_ASSIGNED_CONTEXT ( ( #251 ) ) GLOBAL_UNIT_ASSIGNED_CONTEXT ( ( #230, #128, #268 ) ) REPRESENTATION_CONTEXT ( 'NONE', 'WORKASPACE' ) );
#233 = ORIENTED_EDGE ( 'NONE', *, *, #209, .T. ) ;
#234 = EDGE_CURVE ( 'NONE', #188, #188, #145, .T. ) ;
#235 = CARTESIAN_POINT ( 'NONE',  ( 0.005746062992124826435, 0.0000000000000000000, 0.02952755905511811330 ) ) ;
#236 = ORIENTED_EDGE ( 'NONE', *, *, #30, .F. ) ;
#237 = CARTESIAN_POINT ( 'NONE',  ( 0.8464566929133857665, 0.1100000000000000006, -0.1136516277932333868 ) ) ;
#238 = ADVANCED_FACE ( 'NONE', ( #28, #252 ), #165, .T. ) ;
#239 = MECHANICAL_DESIGN_GEOMETRIC_PRESENTATION_REPRESENTATION (  '', ( #164 ), #45 ) ;
#240 = PLANE ( 'NONE',  #8 ) ;
#241 = ORIENTED_EDGE ( 'NONE', *, *, #11, .T. ) ;
#242 = DIRECTION ( 'NONE',  ( -1.000000000000000000, -7.760931800182566074E-17, -0.0000000000000000000 ) ) ;
#243 = LENGTH_MEASURE_WITH_UNIT ( LENGTH_MEASURE( 0.02539999999999999897 ), #36 );
#244 = FACE_BOUND ( 'NONE', #55, .T. ) ;
#245 = FACE_OUTER_BOUND ( 'NONE', #163, .T. ) ;
#246 = AXIS2_PLACEMENT_3D ( 'NONE', #176, #220, #49 ) ;
#247 = PRODUCT ( 'GN-PT5M3A', 'GN-PT5M3A', '', ( #171 ) ) ;
#248 = CARTESIAN_POINT ( 'NONE',  ( 0.8385826771653550615, 0.09842519685039377575, 0.0000000000000000000 ) ) ;
#249 = PRODUCT_DEFINITION ( 'UNKNOWN', '', #85, #33 ) ;
#250 = SURFACE_STYLE_USAGE ( .BOTH. , #63 ) ;
#251 = UNCERTAINTY_MEASURE_WITH_UNIT (LENGTH_MEASURE( 1.000000000000000082E-05 ), #230, 'distance_accuracy_value', 'NONE');
#252 = FACE_OUTER_BOUND ( 'NONE', #264, .T. ) ;
#253 = DIRECTION ( 'NONE',  ( 0.0000000000000000000, 0.0000000000000000000, -1.000000000000000000 ) ) ;
#254 = CLOSED_SHELL ( 'NONE', ( #146, #109, #136, #158, #9, #58, #57, #125, #238, #37, #216 ) ) ;
#255 = CARTESIAN_POINT ( 'NONE',  ( 0.06692913385826936012, 5.194324433193172366E-18, 0.0000000000000000000 ) ) ;
#256 = CARTESIAN_POINT ( 'NONE',  ( 0.8464566929133857665, -0.01377952755905511792, -0.01181102362204724393 ) ) ;
#257 = CONICAL_SURFACE ( 'NONE', #151, 0.09842519685039370636, 0.7853981633974352894 ) ;
#258 = CARTESIAN_POINT ( 'NONE',  ( 1.751968503937007871, 0.01377952755905511792, 0.0000000000000000000 ) ) ;
#259 = FACE_OUTER_BOUND ( 'NONE', #87, .T. ) ;
#260 = DIRECTION ( 'NONE',  ( 0.0000000000000000000, 0.0000000000000000000, -1.000000000000000000 ) ) ;
#261 = DIRECTION ( 'NONE',  ( 0.0000000000000000000, 0.0000000000000000000, 1.000000000000000000 ) ) ;
#262 = CARTESIAN_POINT ( 'NONE',  ( 1.124845189443522742, 8.729846801034616796E-17, 0.0000000000000000000 ) ) ;
#263 = CARTESIAN_POINT ( 'NONE',  ( 0.05905511811023624047, 4.583227441052687850E-18, 0.0000000000000000000 ) ) ;
#264 = EDGE_LOOP ( 'NONE', ( #47 ) ) ;
#265 = AXIS2_PLACEMENT_3D ( 'NONE', #52, #118, #139 ) ;
#266 = APPLICATION_PROTOCOL_DEFINITION ( 'draft international standard', 'automotive_design', 1998, #133 ) ;
#267 = MANIFOLD_SOLID_BREP ( 'Chamfer1', #254 ) ;
#268 =( NAMED_UNIT ( * ) SI_UNIT ( $, .STERADIAN. ) SOLID_ANGLE_UNIT ( ) );
#269 =( NAMED_UNIT ( * ) PLANE_ANGLE_UNIT ( ) SI_UNIT ( $, .RADIAN. ) );
ENDSEC;
END-ISO-10303-21;
