ISO-10303-21;
HEADER;
FILE_DESCRIPTION (( 'STEP AP214' ),
    '1' );
FILE_NAME ('GN-PT5M3B.STEP',
    '2019-05-23T19:40:05',
    ( '' ),
    ( '' ),
    'SwSTEP 2.0',
    'SolidWorks 2018',
    '' );
FILE_SCHEMA (( 'AUTOMOTIVE_DESIGN' ));
ENDSEC;

DATA;
#1 = CARTESIAN_POINT ( 'NONE',  ( 0.1459499999999705755, 0.0000000000000000000, 0.0000000000000000000 ) ) ;
#2 = AXIS2_PLACEMENT_3D ( 'NONE', #23, #225, #42 ) ;
#3 = CYLINDRICAL_SURFACE ( 'NONE', #260, 0.2999999999999999889 ) ;
#4 = PLANE ( 'NONE',  #49 ) ;
#5 = PRESENTATION_STYLE_ASSIGNMENT (( #118 ) ) ;
#6 = CARTESIAN_POINT ( 'NONE',  ( 0.0000000000000000000, 0.0000000000000000000, 0.0000000000000000000 ) ) ;
#7 = APPLICATION_PROTOCOL_DEFINITION ( 'draft international standard', 'automotive_design', 1998, #248 ) ;
#8 = AXIS2_PLACEMENT_3D ( 'NONE', #201, #101, #103 ) ;
#9 = FACE_BOUND ( 'NONE', #115, .T. ) ;
#10 = FACE_OUTER_BOUND ( 'NONE', #98, .T. ) ;
#11 =( NAMED_UNIT ( * ) SI_UNIT ( $, .STERADIAN. ) SOLID_ANGLE_UNIT ( ) );
#12 = FILL_AREA_STYLE_COLOUR ( '', #56 ) ;
#13 = ORIENTED_EDGE ( 'NONE', *, *, #37, .T. ) ;
#14 = ORIENTED_EDGE ( 'NONE', *, *, #135, .F. ) ;
#15 = FACE_OUTER_BOUND ( 'NONE', #132, .T. ) ;
#16 = ORIENTED_EDGE ( 'NONE', *, *, #53, .T. ) ;
#17 = DIRECTION ( 'NONE',  ( 0.0000000000000000000, -1.000000000000000000, 0.0000000000000000000 ) ) ;
#18 = EDGE_LOOP ( 'NONE', ( #149 ) ) ;
#19 = AXIS2_PLACEMENT_3D ( 'NONE', #151, #73, #163 ) ;
#20 = MECHANICAL_DESIGN_GEOMETRIC_PRESENTATION_REPRESENTATION (  '', ( #108 ), #152 ) ;
#21 = CARTESIAN_POINT ( 'NONE',  ( 1.499999999999960254, 1.251002506714012725E-16, 0.0000000000000000000 ) ) ;
#22 = ORIENTED_EDGE ( 'NONE', *, *, #85, .F. ) ;
#23 = CARTESIAN_POINT ( 'NONE',  ( 18.29999999999999361, 1.526223058191133089E-15, 0.0000000000000000000 ) ) ;
#24 = UNCERTAINTY_MEASURE_WITH_UNIT (LENGTH_MEASURE( 1.000000000000000082E-05 ), #31, 'distance_accuracy_value', 'NONE');
#25 = DIRECTION ( 'NONE',  ( 0.0000000000000000000, 0.0000000000000000000, 1.000000000000000000 ) ) ;
#26 = DIRECTION ( 'NONE',  ( -1.000000000000000000, 0.0000000000000000000, 0.0000000000000000000 ) ) ;
#27 = ORIENTED_EDGE ( 'NONE', *, *, #256, .T. ) ;
#28 = CARTESIAN_POINT ( 'NONE',  ( 1.699999999999958211, 2.500000000000000000, 0.0000000000000000000 ) ) ;
#29 = VERTEX_POINT ( 'NONE', #67 ) ;
#30 = PLANE ( 'NONE',  #148 ) ;
#31 =( LENGTH_UNIT ( ) NAMED_UNIT ( * ) SI_UNIT ( .MILLI., .METRE. ) );
#32 = ORIENTED_EDGE ( 'NONE', *, *, #135, .T. ) ;
#33 = AXIS2_PLACEMENT_3D ( 'NONE', #78, #174, #57 ) ;
#34 = DIRECTION ( 'NONE',  ( 0.0000000000000000000, 0.0000000000000000000, 1.000000000000000000 ) ) ;
#35 = DIRECTION ( 'NONE',  ( -1.000000000000000000, -8.340016711426957754E-17, -0.0000000000000000000 ) ) ;
#36 = ORIENTED_EDGE ( 'NONE', *, *, #37, .F. ) ;
#37 = EDGE_CURVE ( 'NONE', #234, #234, #219, .T. ) ;
#38 = CIRCLE ( 'NONE', #129, 0.7500000000000000000 ) ;
#39 = DIRECTION ( 'NONE',  ( 1.000000000000000000, 8.340016711426957754E-17, 0.0000000000000000000 ) ) ;
#40 = PRESENTATION_STYLE_ASSIGNMENT (( #46 ) ) ;
#41 = EDGE_CURVE ( 'NONE', #241, #241, #54, .T. ) ;
#42 = DIRECTION ( 'NONE',  ( 0.0000000000000000000, -1.000000000000000000, 0.0000000000000000000 ) ) ;
#43 = EDGE_LOOP ( 'NONE', ( #110 ) ) ;
#44 = ADVANCED_BREP_SHAPE_REPRESENTATION ( 'GN-PT5M3B', ( #66, #198 ), #113 ) ;
#45 = PRODUCT_CONTEXT ( 'NONE', #248, 'mechanical' ) ;
#46 = SURFACE_STYLE_USAGE ( .BOTH. , #251 ) ;
#47 = CARTESIAN_POINT ( 'NONE',  ( 41.50000000000000000, -0.3499999999999999778, -0.2999999999999999889 ) ) ;
#48 = FILL_AREA_STYLE ('',( #12 ) ) ;
#49 = AXIS2_PLACEMENT_3D ( 'NONE', #184, #180, #185 ) ;
#50 = VERTEX_POINT ( 'NONE', #230 ) ;
#51 = AXIS2_PLACEMENT_3D ( 'NONE', #137, #203, #222 ) ;
#52 = ORIENTED_EDGE ( 'NONE', *, *, #195, .T. ) ;
#53 = EDGE_CURVE ( 'NONE', #254, #254, #223, .T. ) ;
#54 = CIRCLE ( 'NONE', #99, 0.7500000000000000000 ) ;
#55 = AXIS2_PLACEMENT_3D ( 'NONE', #65, #208, #83 ) ;
#56 = COLOUR_RGB ( '',0.8352941176470588536, 0.8352941176470588536, 0.9176470588235293713 ) ;
#57 = DIRECTION ( 'NONE',  ( 0.0000000000000000000, 1.000000000000000000, 0.0000000000000000000 ) ) ;
#58 = DIRECTION ( 'NONE',  ( -1.000000000000000000, -8.340016711426957754E-17, -0.0000000000000000000 ) ) ;
#59 = SPHERICAL_SURFACE ( 'NONE', #33, 2.000000000000000000 ) ;
#60 = DIRECTION ( 'NONE',  ( -1.000000000000000000, 0.0000000000000000000, 0.0000000000000000000 ) ) ;
#61 = EDGE_LOOP ( 'NONE', ( #16 ) ) ;
#62 = DIRECTION ( 'NONE',  ( -8.673617379884035472E-17, 1.000000000000000000, 0.0000000000000000000 ) ) ;
#63 = FACE_OUTER_BOUND ( 'NONE', #18, .T. ) ;
#64 = CARTESIAN_POINT ( 'NONE',  ( 1.699999999999958433, 1.417802840942550598E-16, 0.0000000000000000000 ) ) ;
#65 = CARTESIAN_POINT ( 'NONE',  ( 18.50000000000000000, 0.3499999999999999778, 0.0000000000000000000 ) ) ;
#66 = MANIFOLD_SOLID_BREP ( 'Chamfer1', #196 ) ;
#67 = CARTESIAN_POINT ( 'NONE',  ( 18.50000000000000000, 0.3499999999999999778, 0.2999999999999999889 ) ) ;
#68 = CARTESIAN_POINT ( 'NONE',  ( 18.50000000000000000, 1.542903091613987443E-15, 2.299999999999996270 ) ) ;
#69 = ORIENTED_EDGE ( 'NONE', *, *, #41, .T. ) ;
#70 = AXIS2_PLACEMENT_3D ( 'NONE', #205, #39, #227 ) ;
#71 = CIRCLE ( 'NONE', #235, 2.299999999999999822 ) ;
#72 =( NAMED_UNIT ( * ) PLANE_ANGLE_UNIT ( ) SI_UNIT ( $, .RADIAN. ) );
#73 = DIRECTION ( 'NONE',  ( -1.000000000000000000, -8.340016711426882565E-17, -0.0000000000000000000 ) ) ;
#74 = ORIENTED_EDGE ( 'NONE', *, *, #96, .F. ) ;
#75 = ADVANCED_FACE ( 'NONE', ( #162, #170 ), #124, .T. ) ;
#76 = ADVANCED_FACE ( 'NONE', ( #112, #121 ), #159, .T. ) ;
#77 = ADVANCED_FACE ( 'NONE', ( #253 ), #59, .T. ) ;
#78 = CARTESIAN_POINT ( 'NONE',  ( 1.999999999999780176, 9.350001149840620576E-07, 0.0000000000000000000 ) ) ;
#79 = MECHANICAL_DESIGN_GEOMETRIC_PRESENTATION_REPRESENTATION (  '', ( #193 ), #220 ) ;
#80 = ORIENTED_EDGE ( 'NONE', *, *, #195, .F. ) ;
#81 = ORIENTED_EDGE ( 'NONE', *, *, #96, .T. ) ;
#82 = SHAPE_DEFINITION_REPRESENTATION ( #161, #44 ) ;
#83 = DIRECTION ( 'NONE',  ( 0.0000000000000000000, 0.0000000000000000000, 1.000000000000000000 ) ) ;
#84 = DIRECTION ( 'NONE',  ( 0.0000000000000000000, 0.0000000000000000000, 1.000000000000000000 ) ) ;
#85 = EDGE_CURVE ( 'NONE', #242, #242, #116, .T. ) ;
#86 = DIRECTION ( 'NONE',  ( 1.000000000000000000, 0.0000000000000000000, 0.0000000000000000000 ) ) ;
#87 = ORIENTED_EDGE ( 'NONE', *, *, #141, .F. ) ;
#88 = APPLICATION_CONTEXT ( 'automotive_design' ) ;
#89 = EDGE_LOOP ( 'NONE', ( #13 ) ) ;
#90 = FACE_OUTER_BOUND ( 'NONE', #218, .T. ) ;
#91 = CARTESIAN_POINT ( 'NONE',  ( 18.29999999999999361, -2.499999999999998224, 0.0000000000000000000 ) ) ;
#92 = CARTESIAN_POINT ( 'NONE',  ( 41.50000000000000000, 0.3499999999999999778, -0.2999999999999999889 ) ) ;
#93 = PRODUCT_DEFINITION_FORMATION_WITH_SPECIFIED_SOURCE ( 'ANY', '', #166, .NOT_KNOWN. ) ;
#94 = FILL_AREA_STYLE_COLOUR ( '', #240 ) ;
#95 = SURFACE_STYLE_FILL_AREA ( #48 ) ;
#96 = EDGE_CURVE ( 'NONE', #50, #50, #71, .T. ) ;
#97 = DIRECTION ( 'NONE',  ( -1.000000000000000000, 0.0000000000000000000, 0.0000000000000000000 ) ) ;
#98 = EDGE_LOOP ( 'NONE', ( #87 ) ) ;
#99 = AXIS2_PLACEMENT_3D ( 'NONE', #134, #175, #17 ) ;
#100 = EDGE_LOOP ( 'NONE', ( #52 ) ) ;
#101 = DIRECTION ( 'NONE',  ( 1.000000000000000000, 8.340016711426977475E-17, -0.0000000000000000000 ) ) ;
#102 = FACE_BOUND ( 'NONE', #123, .T. ) ;
#103 = DIRECTION ( 'NONE',  ( -8.673617379884035472E-17, 1.000000000000000000, 0.0000000000000000000 ) ) ;
#104 = DIRECTION ( 'NONE',  ( -1.000000000000000000, 0.0000000000000000000, -0.0000000000000000000 ) ) ;
#105 = VERTEX_POINT ( 'NONE', #127 ) ;
#106 = AXIS2_PLACEMENT_3D ( 'NONE', #209, #86, #212 ) ;
#107 = DIRECTION ( 'NONE',  ( 1.000000000000000000, 0.0000000000000000000, 0.0000000000000000000 ) ) ;
#108 = STYLED_ITEM ( 'NONE', ( #5 ), #66 ) ;
#109 = DIRECTION ( 'NONE',  ( 0.0000000000000000000, 0.0000000000000000000, 1.000000000000000000 ) ) ;
#110 = ORIENTED_EDGE ( 'NONE', *, *, #141, .T. ) ;
#111 = DIRECTION ( 'NONE',  ( 0.0000000000000000000, 0.0000000000000000000, -1.000000000000000000 ) ) ;
#112 = FACE_OUTER_BOUND ( 'NONE', #178, .T. ) ;
#113 =( GEOMETRIC_REPRESENTATION_CONTEXT ( 3 ) GLOBAL_UNCERTAINTY_ASSIGNED_CONTEXT ( ( #243 ) ) GLOBAL_UNIT_ASSIGNED_CONTEXT ( ( #128, #72, #11 ) ) REPRESENTATION_CONTEXT ( 'NONE', 'WORKASPACE' ) );
#114 = SURFACE_SIDE_STYLE ('',( #246 ) ) ;
#115 = EDGE_LOOP ( 'NONE', ( #80 ) ) ;
#116 = CIRCLE ( 'NONE', #51, 2.299999999999996270 ) ;
#117 = ADVANCED_FACE ( 'NONE', ( #63, #9, #183 ), #154, .F. ) ;
#118 = SURFACE_STYLE_USAGE ( .BOTH. , #114 ) ;
#119 = AXIS2_PLACEMENT_3D ( 'NONE', #136, #104, #238 ) ;
#120 = PLANE ( 'NONE',  #70 ) ;
#121 = FACE_OUTER_BOUND ( 'NONE', #61, .T. ) ;
#122 = CARTESIAN_POINT ( 'NONE',  ( 0.0000000000000000000, 0.0000000000000000000, 0.0000000000000000000 ) ) ;
#123 = EDGE_LOOP ( 'NONE', ( #74 ) ) ;
#124 = CYLINDRICAL_SURFACE ( 'NONE', #224, 0.2999999999999999889 ) ;
#125 = PRODUCT_RELATED_PRODUCT_CATEGORY ( 'part', '', ( #166 ) ) ;
#126 = EDGE_LOOP ( 'NONE', ( #259 ) ) ;
#127 = CARTESIAN_POINT ( 'NONE',  ( 18.50000000000000000, -0.3499999999999999778, 0.2999999999999999889 ) ) ;
#128 =( LENGTH_UNIT ( ) NAMED_UNIT ( * ) SI_UNIT ( .MILLI., .METRE. ) );
#129 = AXIS2_PLACEMENT_3D ( 'NONE', #1, #145, #84 ) ;
#130 = EDGE_LOOP ( 'NONE', ( #189 ) ) ;
#131 = EDGE_LOOP ( 'NONE', ( #27 ) ) ;
#132 = EDGE_LOOP ( 'NONE', ( #81 ) ) ;
#133 = CONICAL_SURFACE ( 'NONE', #171, 2.500000000000000000, 0.7853981633974526089 ) ;
#134 = CARTESIAN_POINT ( 'NONE',  ( 1.499999999999960254, 0.0000000000000000000, 0.0000000000000000000 ) ) ;
#135 = EDGE_CURVE ( 'NONE', #156, #156, #176, .T. ) ;
#136 = CARTESIAN_POINT ( 'NONE',  ( 18.50000000000000000, 0.0000000000000000000, -2.886751345948128211 ) ) ;
#137 = CARTESIAN_POINT ( 'NONE',  ( 18.50000000000000000, 1.542903091613987443E-15, 0.0000000000000000000 ) ) ;
#138 = EDGE_LOOP ( 'NONE', ( #22 ) ) ;
#139 = DIRECTION ( 'NONE',  ( -9.427844978134821433E-17, 1.000000000000000000, 0.0000000000000000000 ) ) ;
#140 = DIRECTION ( 'NONE',  ( 0.0000000000000000000, 0.0000000000000000000, 1.000000000000000000 ) ) ;
#141 = EDGE_CURVE ( 'NONE', #199, #199, #38, .T. ) ;
#142 = AXIS2_PLACEMENT_3D ( 'NONE', #187, #232, #229 ) ;
#143 = VERTEX_POINT ( 'NONE', #92 ) ;
#144 = DIRECTION ( 'NONE',  ( 1.000000000000000000, 8.340016711426977475E-17, -0.0000000000000000000 ) ) ;
#145 = DIRECTION ( 'NONE',  ( -1.000000000000000000, 0.0000000000000000000, 0.0000000000000000000 ) ) ;
#146 = DIRECTION ( 'NONE',  ( 1.000000000000000000, 0.0000000000000000000, 0.0000000000000000000 ) ) ;
#147 = CARTESIAN_POINT ( 'NONE',  ( 41.50000000000000000, 0.3499999999999999778, 0.0000000000000000000 ) ) ;
#148 = AXIS2_PLACEMENT_3D ( 'NONE', #147, #107, #214 ) ;
#149 = ORIENTED_EDGE ( 'NONE', *, *, #85, .T. ) ;
#150 = CIRCLE ( 'NONE', #142, 0.2999999999999999889 ) ;
#151 = CARTESIAN_POINT ( 'NONE',  ( 18.29999999999999361, 1.526223058191133089E-15, 0.0000000000000000000 ) ) ;
#152 =( GEOMETRIC_REPRESENTATION_CONTEXT ( 3 ) GLOBAL_UNCERTAINTY_ASSIGNED_CONTEXT ( ( #168 ) ) GLOBAL_UNIT_ASSIGNED_CONTEXT ( ( #200, #157, #153 ) ) REPRESENTATION_CONTEXT ( 'NONE', 'WORKASPACE' ) );
#153 =( NAMED_UNIT ( * ) SI_UNIT ( $, .STERADIAN. ) SOLID_ANGLE_UNIT ( ) );
#154 = PLANE ( 'NONE',  #119 ) ;
#155 = FACE_OUTER_BOUND ( 'NONE', #188, .T. ) ;
#156 = VERTEX_POINT ( 'NONE', #91 ) ;
#157 =( NAMED_UNIT ( * ) PLANE_ANGLE_UNIT ( ) SI_UNIT ( $, .RADIAN. ) );
#158 = AXIS2_PLACEMENT_3D ( 'NONE', #231, #215, #111 ) ;
#159 = CYLINDRICAL_SURFACE ( 'NONE', #249, 2.500000000000000000 ) ;
#160 = FACE_BOUND ( 'NONE', #138, .T. ) ;
#161 = PRODUCT_DEFINITION_SHAPE ( 'NONE', 'NONE',  #237 ) ;
#162 = FACE_OUTER_BOUND ( 'NONE', #126, .T. ) ;
#163 = DIRECTION ( 'NONE',  ( 0.0000000000000000000, -1.000000000000000000, 0.0000000000000000000 ) ) ;
#164 = ADVANCED_FACE ( 'NONE', ( #15, #204 ), #120, .F. ) ;
#165 = ORIENTED_EDGE ( 'NONE', *, *, #53, .F. ) ;
#166 = PRODUCT ( 'GN-PT5M3B', 'GN-PT5M3B', '', ( #45 ) ) ;
#167 = EDGE_LOOP ( 'NONE', ( #206 ) ) ;
#168 = UNCERTAINTY_MEASURE_WITH_UNIT (LENGTH_MEASURE( 1.000000000000000082E-05 ), #200, 'distance_accuracy_value', 'NONE');
#169 = FACE_OUTER_BOUND ( 'NONE', #131, .T. ) ;
#170 = FACE_OUTER_BOUND ( 'NONE', #100, .T. ) ;
#171 = AXIS2_PLACEMENT_3D ( 'NONE', #64, #144, #62 ) ;
#172 = DIRECTION ( 'NONE',  ( 0.0000000000000000000, -1.000000000000000000, 0.0000000000000000000 ) ) ;
#173 = ADVANCED_FACE ( 'NONE', ( #197, #169 ), #3, .T. ) ;
#174 = DIRECTION ( 'NONE',  ( 0.0000000000000000000, 0.0000000000000000000, -1.000000000000000000 ) ) ;
#175 = DIRECTION ( 'NONE',  ( -1.000000000000000000, -8.340016711426957754E-17, -0.0000000000000000000 ) ) ;
#176 = CIRCLE ( 'NONE', #2, 2.500000000000000000 ) ;
#177 = CARTESIAN_POINT ( 'NONE',  ( 41.50000000000000000, -0.3499999999999999778, 0.0000000000000000000 ) ) ;
#178 = EDGE_LOOP ( 'NONE', ( #32 ) ) ;
#179 = PRODUCT_DEFINITION_CONTEXT ( 'detailed design', #88, 'design' ) ;
#180 = DIRECTION ( 'NONE',  ( 1.000000000000000000, 0.0000000000000000000, 0.0000000000000000000 ) ) ;
#181 = PRESENTATION_LAYER_ASSIGNMENT (  '', '', ( #108 ) ) ;
#182 = AXIS2_PLACEMENT_3D ( 'NONE', #122, #26, #25 ) ;
#183 = FACE_BOUND ( 'NONE', #221, .T. ) ;
#184 = CARTESIAN_POINT ( 'NONE',  ( 41.50000000000000000, -0.3499999999999999778, 0.0000000000000000000 ) ) ;
#185 = DIRECTION ( 'NONE',  ( 0.0000000000000000000, 0.0000000000000000000, -1.000000000000000000 ) ) ;
#186 = EDGE_LOOP ( 'NONE', ( #165 ) ) ;
#187 = CARTESIAN_POINT ( 'NONE',  ( 18.50000000000000000, -0.3499999999999999778, 0.0000000000000000000 ) ) ;
#188 = EDGE_LOOP ( 'NONE', ( #36 ) ) ;
#189 = ORIENTED_EDGE ( 'NONE', *, *, #244, .T. ) ;
#190 = CYLINDRICAL_SURFACE ( 'NONE', #182, 0.7500000000000000000 ) ;
#191 = CARTESIAN_POINT ( 'NONE',  ( 0.1459499999999705755, 0.0000000000000000000, 0.7500000000000000000 ) ) ;
#192 = CARTESIAN_POINT ( 'NONE',  ( 1.499999999999960254, -0.7500000000000000000, 0.0000000000000000000 ) ) ;
#193 = STYLED_ITEM ( 'NONE', ( #40 ), #44 ) ;
#194 = ADVANCED_FACE ( 'NONE', ( #10, #90 ), #190, .T. ) ;
#195 = EDGE_CURVE ( 'NONE', #29, #29, #247, .T. ) ;
#196 = CLOSED_SHELL ( 'NONE', ( #233, #173, #164, #76, #117, #255, #75, #77, #194, #252, #210 ) ) ;
#197 = FACE_OUTER_BOUND ( 'NONE', #89, .T. ) ;
#198 = AXIS2_PLACEMENT_3D ( 'NONE', #6, #109, #146 ) ;
#199 = VERTEX_POINT ( 'NONE', #191 ) ;
#200 =( LENGTH_UNIT ( ) NAMED_UNIT ( * ) SI_UNIT ( .MILLI., .METRE. ) );
#201 = CARTESIAN_POINT ( 'NONE',  ( 1.699999999999958433, 1.417802840942550598E-16, 0.0000000000000000000 ) ) ;
#202 = CIRCLE ( 'NONE', #106, 0.2999999999999999889 ) ;
#203 = DIRECTION ( 'NONE',  ( 1.000000000000000000, 0.0000000000000000000, 0.0000000000000000000 ) ) ;
#204 = FACE_BOUND ( 'NONE', #167, .T. ) ;
#205 = CARTESIAN_POINT ( 'NONE',  ( 1.499999999999960254, 1.251002506714010506E-16, 0.0000000000000000000 ) ) ;
#206 = ORIENTED_EDGE ( 'NONE', *, *, #41, .F. ) ;
#207 = FACE_OUTER_BOUND ( 'NONE', #130, .T. ) ;
#208 = DIRECTION ( 'NONE',  ( 1.000000000000000000, 0.0000000000000000000, 0.0000000000000000000 ) ) ;
#209 = CARTESIAN_POINT ( 'NONE',  ( 41.50000000000000000, 0.3499999999999999778, 0.0000000000000000000 ) ) ;
#210 = ADVANCED_FACE ( 'NONE', ( #102, #213 ), #133, .T. ) ;
#211 =( NAMED_UNIT ( * ) SI_UNIT ( $, .STERADIAN. ) SOLID_ANGLE_UNIT ( ) );
#212 = DIRECTION ( 'NONE',  ( 0.0000000000000000000, 0.0000000000000000000, -1.000000000000000000 ) ) ;
#213 = FACE_OUTER_BOUND ( 'NONE', #186, .T. ) ;
#214 = DIRECTION ( 'NONE',  ( 0.0000000000000000000, 0.0000000000000000000, -1.000000000000000000 ) ) ;
#215 = DIRECTION ( 'NONE',  ( -1.000000000000000000, 0.0000000000000000000, 0.0000000000000000000 ) ) ;
#216 = PRESENTATION_LAYER_ASSIGNMENT (  '', '', ( #193 ) ) ;
#217 = FACE_OUTER_BOUND ( 'NONE', #239, .T. ) ;
#218 = EDGE_LOOP ( 'NONE', ( #69 ) ) ;
#219 = CIRCLE ( 'NONE', #158, 0.2999999999999999889 ) ;
#220 =( GEOMETRIC_REPRESENTATION_CONTEXT ( 3 ) GLOBAL_UNCERTAINTY_ASSIGNED_CONTEXT ( ( #24 ) ) GLOBAL_UNIT_ASSIGNED_CONTEXT ( ( #31, #245, #211 ) ) REPRESENTATION_CONTEXT ( 'NONE', 'WORKASPACE' ) );
#221 = EDGE_LOOP ( 'NONE', ( #226 ) ) ;
#222 = DIRECTION ( 'NONE',  ( 0.0000000000000000000, 0.0000000000000000000, 1.000000000000000000 ) ) ;
#223 = CIRCLE ( 'NONE', #8, 2.500000000000000000 ) ;
#224 = AXIS2_PLACEMENT_3D ( 'NONE', #250, #97, #34 ) ;
#225 = DIRECTION ( 'NONE',  ( -1.000000000000000000, -8.340016711426882565E-17, -0.0000000000000000000 ) ) ;
#226 = ORIENTED_EDGE ( 'NONE', *, *, #256, .F. ) ;
#227 = DIRECTION ( 'NONE',  ( -8.340016711426957754E-17, 1.000000000000000000, 0.0000000000000000000 ) ) ;
#228 = APPLICATION_PROTOCOL_DEFINITION ( 'draft international standard', 'automotive_design', 1998, #88 ) ;
#229 = DIRECTION ( 'NONE',  ( 0.0000000000000000000, 0.0000000000000000000, 1.000000000000000000 ) ) ;
#230 = CARTESIAN_POINT ( 'NONE',  ( 1.499999999999960032, 2.299999999999999822, 0.0000000000000000000 ) ) ;
#231 = CARTESIAN_POINT ( 'NONE',  ( 41.50000000000000000, -0.3499999999999999778, 0.0000000000000000000 ) ) ;
#232 = DIRECTION ( 'NONE',  ( 1.000000000000000000, 0.0000000000000000000, 0.0000000000000000000 ) ) ;
#233 = ADVANCED_FACE ( 'NONE', ( #155 ), #4, .T. ) ;
#234 = VERTEX_POINT ( 'NONE', #47 ) ;
#235 = AXIS2_PLACEMENT_3D ( 'NONE', #21, #58, #139 ) ;
#236 = CARTESIAN_POINT ( 'NONE',  ( 25.57106781186547551, 2.132631328799900642E-15, 0.0000000000000000000 ) ) ;
#237 = PRODUCT_DEFINITION ( 'UNKNOWN', '', #93, #179 ) ;
#238 = DIRECTION ( 'NONE',  ( -0.0000000000000000000, 0.0000000000000000000, 1.000000000000000000 ) ) ;
#239 = EDGE_LOOP ( 'NONE', ( #14 ) ) ;
#240 = COLOUR_RGB ( '',0.8352941176470588536, 0.8352941176470588536, 0.9176470588235293713 ) ;
#241 = VERTEX_POINT ( 'NONE', #192 ) ;
#242 = VERTEX_POINT ( 'NONE', #68 ) ;
#243 = UNCERTAINTY_MEASURE_WITH_UNIT (LENGTH_MEASURE( 1.000000000000000082E-05 ), #128, 'distance_accuracy_value', 'NONE');
#244 = EDGE_CURVE ( 'NONE', #143, #143, #202, .T. ) ;
#245 =( NAMED_UNIT ( * ) PLANE_ANGLE_UNIT ( ) SI_UNIT ( $, .RADIAN. ) );
#246 = SURFACE_STYLE_FILL_AREA ( #257 ) ;
#247 = CIRCLE ( 'NONE', #55, 0.2999999999999999889 ) ;
#248 = APPLICATION_CONTEXT ( 'automotive_design' ) ;
#249 = AXIS2_PLACEMENT_3D ( 'NONE', #236, #35, #172 ) ;
#250 = CARTESIAN_POINT ( 'NONE',  ( 41.50000000000000000, 0.3499999999999999778, 0.0000000000000000000 ) ) ;
#251 = SURFACE_SIDE_STYLE ('',( #95 ) ) ;
#252 = ADVANCED_FACE ( 'NONE', ( #160, #217 ), #258, .T. ) ;
#253 = FACE_OUTER_BOUND ( 'NONE', #43, .T. ) ;
#254 = VERTEX_POINT ( 'NONE', #28 ) ;
#255 = ADVANCED_FACE ( 'NONE', ( #207 ), #30, .T. ) ;
#256 = EDGE_CURVE ( 'NONE', #105, #105, #150, .T. ) ;
#257 = FILL_AREA_STYLE ('',( #94 ) ) ;
#258 = CONICAL_SURFACE ( 'NONE', #19, 2.500000000000000000, 0.7853981633974428389 ) ;
#259 = ORIENTED_EDGE ( 'NONE', *, *, #244, .F. ) ;
#260 = AXIS2_PLACEMENT_3D ( 'NONE', #177, #60, #140 ) ;
ENDSEC;
END-ISO-10303-21;
