ISO-10303-21;
HEADER;
/* Generated by software containing ST-Developer
 * from STEP Tools, Inc. (www.steptools.com) 
 */

FILE_DESCRIPTION(
/* description */ (''),
/* implementation_level */ '2;1');

FILE_NAME(
/* name */ 
'S:\\Stahlin_Non_Metallic\\35785\\CAD_files\\ENTEGEE_Design\\IN PROGRE
SS\\HW-MP2424AL\\HW-MP2424AL.stp',
/* time_stamp */ '2016-08-17T11:48:05-05:00',
/* author */ ('lieb_t'),
/* organization */ (''),
/* preprocessor_version */ 'ST-DEVELOPER v16.5',
/* originating_system */ 'Autodesk Inventor 2017',
/* authorisation */ '');

FILE_SCHEMA (('CONFIG_CONTROL_DESIGN'));
ENDSEC;

DATA;
#10=MECHANICAL_DESIGN_GEOMETRIC_PRESENTATION_REPRESENTATION('',(#13),#313);
#11=SHAPE_REPRESENTATION_RELATIONSHIP('SRR','None',#325,#12);
#12=ADVANCED_BREP_SHAPE_REPRESENTATION('',(#14),#312);
#13=STYLED_ITEM('',(#335),#14);
#14=MANIFOLD_SOLID_BREP('Solid2',#187);
#15=LINE('',#287,#27);
#16=LINE('',#289,#28);
#17=LINE('',#291,#29);
#18=LINE('',#292,#30);
#19=LINE('',#295,#31);
#20=LINE('',#297,#32);
#21=LINE('',#298,#33);
#22=LINE('',#301,#34);
#23=LINE('',#303,#35);
#24=LINE('',#304,#36);
#25=LINE('',#306,#37);
#26=LINE('',#307,#38);
#27=VECTOR('',#241,22.);
#28=VECTOR('',#242,0.08);
#29=VECTOR('',#243,22.);
#30=VECTOR('',#244,0.08);
#31=VECTOR('',#247,22.);
#32=VECTOR('',#248,22.);
#33=VECTOR('',#249,0.08);
#34=VECTOR('',#252,22.);
#35=VECTOR('',#253,22.);
#36=VECTOR('',#254,0.08);
#37=VECTOR('',#257,22.);
#38=VECTOR('',#258,22.);
#39=PLANE('',#207);
#40=PLANE('',#208);
#41=PLANE('',#209);
#42=PLANE('',#210);
#43=PLANE('',#211);
#44=PLANE('',#212);
#45=FACE_BOUND('',#68,.T.);
#46=FACE_BOUND('',#70,.T.);
#47=FACE_BOUND('',#72,.T.);
#48=FACE_BOUND('',#74,.T.);
#49=FACE_BOUND('',#80,.T.);
#50=FACE_BOUND('',#81,.T.);
#51=FACE_BOUND('',#82,.T.);
#52=FACE_BOUND('',#83,.T.);
#53=FACE_BOUND('',#85,.T.);
#54=FACE_BOUND('',#86,.T.);
#55=FACE_BOUND('',#87,.T.);
#56=FACE_BOUND('',#88,.T.);
#57=FACE_OUTER_BOUND('',#67,.T.);
#58=FACE_OUTER_BOUND('',#69,.T.);
#59=FACE_OUTER_BOUND('',#71,.T.);
#60=FACE_OUTER_BOUND('',#73,.T.);
#61=FACE_OUTER_BOUND('',#75,.T.);
#62=FACE_OUTER_BOUND('',#76,.T.);
#63=FACE_OUTER_BOUND('',#77,.T.);
#64=FACE_OUTER_BOUND('',#78,.T.);
#65=FACE_OUTER_BOUND('',#79,.T.);
#66=FACE_OUTER_BOUND('',#84,.T.);
#67=EDGE_LOOP('',(#133));
#68=EDGE_LOOP('',(#134));
#69=EDGE_LOOP('',(#135));
#70=EDGE_LOOP('',(#136));
#71=EDGE_LOOP('',(#137));
#72=EDGE_LOOP('',(#138));
#73=EDGE_LOOP('',(#139));
#74=EDGE_LOOP('',(#140));
#75=EDGE_LOOP('',(#141,#142,#143,#144));
#76=EDGE_LOOP('',(#145,#146,#147,#148));
#77=EDGE_LOOP('',(#149,#150,#151,#152));
#78=EDGE_LOOP('',(#153,#154,#155,#156));
#79=EDGE_LOOP('',(#157,#158,#159,#160));
#80=EDGE_LOOP('',(#161));
#81=EDGE_LOOP('',(#162));
#82=EDGE_LOOP('',(#163));
#83=EDGE_LOOP('',(#164));
#84=EDGE_LOOP('',(#165,#166,#167,#168));
#85=EDGE_LOOP('',(#169));
#86=EDGE_LOOP('',(#170));
#87=EDGE_LOOP('',(#171));
#88=EDGE_LOOP('',(#172));
#89=CIRCLE('',#196,0.1475);
#90=CIRCLE('',#197,0.1475);
#91=CIRCLE('',#199,0.1475);
#92=CIRCLE('',#200,0.1475);
#93=CIRCLE('',#202,0.1475);
#94=CIRCLE('',#203,0.1475);
#95=CIRCLE('',#205,0.1475);
#96=CIRCLE('',#206,0.1475);
#97=VERTEX_POINT('',#265);
#98=VERTEX_POINT('',#267);
#99=VERTEX_POINT('',#270);
#100=VERTEX_POINT('',#272);
#101=VERTEX_POINT('',#275);
#102=VERTEX_POINT('',#277);
#103=VERTEX_POINT('',#280);
#104=VERTEX_POINT('',#282);
#105=VERTEX_POINT('',#285);
#106=VERTEX_POINT('',#286);
#107=VERTEX_POINT('',#288);
#108=VERTEX_POINT('',#290);
#109=VERTEX_POINT('',#294);
#110=VERTEX_POINT('',#296);
#111=VERTEX_POINT('',#300);
#112=VERTEX_POINT('',#302);
#113=EDGE_CURVE('',#97,#97,#89,.T.);
#114=EDGE_CURVE('',#98,#98,#90,.T.);
#115=EDGE_CURVE('',#99,#99,#91,.T.);
#116=EDGE_CURVE('',#100,#100,#92,.T.);
#117=EDGE_CURVE('',#101,#101,#93,.T.);
#118=EDGE_CURVE('',#102,#102,#94,.T.);
#119=EDGE_CURVE('',#103,#103,#95,.T.);
#120=EDGE_CURVE('',#104,#104,#96,.T.);
#121=EDGE_CURVE('',#105,#106,#15,.T.);
#122=EDGE_CURVE('',#106,#107,#16,.T.);
#123=EDGE_CURVE('',#108,#107,#17,.T.);
#124=EDGE_CURVE('',#105,#108,#18,.T.);
#125=EDGE_CURVE('',#109,#105,#19,.T.);
#126=EDGE_CURVE('',#110,#108,#20,.T.);
#127=EDGE_CURVE('',#109,#110,#21,.T.);
#128=EDGE_CURVE('',#111,#109,#22,.T.);
#129=EDGE_CURVE('',#112,#110,#23,.T.);
#130=EDGE_CURVE('',#111,#112,#24,.T.);
#131=EDGE_CURVE('',#106,#111,#25,.T.);
#132=EDGE_CURVE('',#107,#112,#26,.T.);
#133=ORIENTED_EDGE('',*,*,#113,.F.);
#134=ORIENTED_EDGE('',*,*,#114,.F.);
#135=ORIENTED_EDGE('',*,*,#115,.F.);
#136=ORIENTED_EDGE('',*,*,#116,.F.);
#137=ORIENTED_EDGE('',*,*,#117,.F.);
#138=ORIENTED_EDGE('',*,*,#118,.F.);
#139=ORIENTED_EDGE('',*,*,#119,.F.);
#140=ORIENTED_EDGE('',*,*,#120,.F.);
#141=ORIENTED_EDGE('',*,*,#121,.T.);
#142=ORIENTED_EDGE('',*,*,#122,.T.);
#143=ORIENTED_EDGE('',*,*,#123,.F.);
#144=ORIENTED_EDGE('',*,*,#124,.F.);
#145=ORIENTED_EDGE('',*,*,#125,.T.);
#146=ORIENTED_EDGE('',*,*,#124,.T.);
#147=ORIENTED_EDGE('',*,*,#126,.F.);
#148=ORIENTED_EDGE('',*,*,#127,.F.);
#149=ORIENTED_EDGE('',*,*,#128,.T.);
#150=ORIENTED_EDGE('',*,*,#127,.T.);
#151=ORIENTED_EDGE('',*,*,#129,.F.);
#152=ORIENTED_EDGE('',*,*,#130,.F.);
#153=ORIENTED_EDGE('',*,*,#131,.T.);
#154=ORIENTED_EDGE('',*,*,#130,.T.);
#155=ORIENTED_EDGE('',*,*,#132,.F.);
#156=ORIENTED_EDGE('',*,*,#122,.F.);
#157=ORIENTED_EDGE('',*,*,#132,.T.);
#158=ORIENTED_EDGE('',*,*,#129,.T.);
#159=ORIENTED_EDGE('',*,*,#126,.T.);
#160=ORIENTED_EDGE('',*,*,#123,.T.);
#161=ORIENTED_EDGE('',*,*,#113,.T.);
#162=ORIENTED_EDGE('',*,*,#115,.T.);
#163=ORIENTED_EDGE('',*,*,#117,.T.);
#164=ORIENTED_EDGE('',*,*,#119,.T.);
#165=ORIENTED_EDGE('',*,*,#131,.F.);
#166=ORIENTED_EDGE('',*,*,#121,.F.);
#167=ORIENTED_EDGE('',*,*,#125,.F.);
#168=ORIENTED_EDGE('',*,*,#128,.F.);
#169=ORIENTED_EDGE('',*,*,#114,.T.);
#170=ORIENTED_EDGE('',*,*,#116,.T.);
#171=ORIENTED_EDGE('',*,*,#118,.T.);
#172=ORIENTED_EDGE('',*,*,#120,.T.);
#173=CYLINDRICAL_SURFACE('',#195,0.1475);
#174=CYLINDRICAL_SURFACE('',#198,0.1475);
#175=CYLINDRICAL_SURFACE('',#201,0.1475);
#176=CYLINDRICAL_SURFACE('',#204,0.1475);
#177=ADVANCED_FACE('',(#57,#45),#173,.F.);
#178=ADVANCED_FACE('',(#58,#46),#174,.F.);
#179=ADVANCED_FACE('',(#59,#47),#175,.F.);
#180=ADVANCED_FACE('',(#60,#48),#176,.F.);
#181=ADVANCED_FACE('',(#61),#39,.T.);
#182=ADVANCED_FACE('',(#62),#40,.T.);
#183=ADVANCED_FACE('',(#63),#41,.T.);
#184=ADVANCED_FACE('',(#64),#42,.T.);
#185=ADVANCED_FACE('',(#65,#49,#50,#51,#52),#43,.T.);
#186=ADVANCED_FACE('',(#66,#53,#54,#55,#56),#44,.F.);
#187=CLOSED_SHELL('',(#177,#178,#179,#180,#181,#182,#183,#184,#185,#186));
#188=DATE_TIME_ROLE('creation_date');
#189=CC_DESIGN_DATE_AND_TIME_ASSIGNMENT(#190,#188,(#327));
#190=DATE_AND_TIME(#191,#192);
#191=CALENDAR_DATE(2014,10,1);
#192=LOCAL_TIME(10,19,50.,#193);
#193=COORDINATED_UNIVERSAL_TIME_OFFSET(0,0,.BEHIND.);
#194=AXIS2_PLACEMENT_3D('placement',#263,#213,#214);
#195=AXIS2_PLACEMENT_3D('',#264,#215,#216);
#196=AXIS2_PLACEMENT_3D('',#266,#217,#218);
#197=AXIS2_PLACEMENT_3D('',#268,#219,#220);
#198=AXIS2_PLACEMENT_3D('',#269,#221,#222);
#199=AXIS2_PLACEMENT_3D('',#271,#223,#224);
#200=AXIS2_PLACEMENT_3D('',#273,#225,#226);
#201=AXIS2_PLACEMENT_3D('',#274,#227,#228);
#202=AXIS2_PLACEMENT_3D('',#276,#229,#230);
#203=AXIS2_PLACEMENT_3D('',#278,#231,#232);
#204=AXIS2_PLACEMENT_3D('',#279,#233,#234);
#205=AXIS2_PLACEMENT_3D('',#281,#235,#236);
#206=AXIS2_PLACEMENT_3D('',#283,#237,#238);
#207=AXIS2_PLACEMENT_3D('',#284,#239,#240);
#208=AXIS2_PLACEMENT_3D('',#293,#245,#246);
#209=AXIS2_PLACEMENT_3D('',#299,#250,#251);
#210=AXIS2_PLACEMENT_3D('',#305,#255,#256);
#211=AXIS2_PLACEMENT_3D('',#308,#259,#260);
#212=AXIS2_PLACEMENT_3D('',#309,#261,#262);
#213=DIRECTION('axis',(0.,0.,1.));
#214=DIRECTION('refdir',(1.,0.,0.));
#215=DIRECTION('center_axis',(0.,0.,1.));
#216=DIRECTION('ref_axis',(-1.,0.,0.));
#217=DIRECTION('center_axis',(0.,0.,-1.));
#218=DIRECTION('ref_axis',(-1.,0.,0.));
#219=DIRECTION('center_axis',(0.,0.,1.));
#220=DIRECTION('ref_axis',(-1.,0.,0.));
#221=DIRECTION('center_axis',(0.,0.,1.));
#222=DIRECTION('ref_axis',(-1.,0.,0.));
#223=DIRECTION('center_axis',(0.,0.,-1.));
#224=DIRECTION('ref_axis',(-1.,0.,0.));
#225=DIRECTION('center_axis',(0.,0.,1.));
#226=DIRECTION('ref_axis',(-1.,0.,0.));
#227=DIRECTION('center_axis',(0.,0.,1.));
#228=DIRECTION('ref_axis',(-1.,0.,0.));
#229=DIRECTION('center_axis',(0.,0.,-1.));
#230=DIRECTION('ref_axis',(-1.,0.,0.));
#231=DIRECTION('center_axis',(0.,0.,1.));
#232=DIRECTION('ref_axis',(-1.,0.,0.));
#233=DIRECTION('center_axis',(0.,0.,1.));
#234=DIRECTION('ref_axis',(-1.,0.,0.));
#235=DIRECTION('center_axis',(0.,0.,-1.));
#236=DIRECTION('ref_axis',(-1.,0.,0.));
#237=DIRECTION('center_axis',(0.,0.,1.));
#238=DIRECTION('ref_axis',(-1.,0.,0.));
#239=DIRECTION('center_axis',(-1.,-3.06161699786838E-16,0.));
#240=DIRECTION('ref_axis',(3.06161699786838E-16,-1.,0.));
#241=DIRECTION('',(3.06161699786838E-16,-1.,0.));
#242=DIRECTION('',(0.,0.,1.));
#243=DIRECTION('',(3.06161699786838E-16,-1.,0.));
#244=DIRECTION('',(0.,0.,1.));
#245=DIRECTION('center_axis',(-1.27155106614191E-16,1.,0.));
#246=DIRECTION('ref_axis',(-1.,0.,0.));
#247=DIRECTION('',(-1.,-1.27155106614191E-16,0.));
#248=DIRECTION('',(-1.,-1.27155106614191E-16,0.));
#249=DIRECTION('',(0.,0.,1.));
#250=DIRECTION('center_axis',(1.,1.27155106614191E-16,0.));
#251=DIRECTION('ref_axis',(0.,1.,0.));
#252=DIRECTION('',(-1.27155106614191E-16,1.,0.));
#253=DIRECTION('',(-1.27155106614191E-16,1.,0.));
#254=DIRECTION('',(0.,0.,1.));
#255=DIRECTION('center_axis',(0.,-1.,0.));
#256=DIRECTION('ref_axis',(1.,0.,0.));
#257=DIRECTION('',(1.,0.,0.));
#258=DIRECTION('',(1.,0.,0.));
#259=DIRECTION('center_axis',(0.,0.,1.));
#260=DIRECTION('ref_axis',(1.,0.,0.));
#261=DIRECTION('center_axis',(0.,0.,1.));
#262=DIRECTION('ref_axis',(1.,0.,0.));
#263=CARTESIAN_POINT('',(0.,0.,0.));
#264=CARTESIAN_POINT('Origin',(1.375,20.625,0.));
#265=CARTESIAN_POINT('',(1.5225,20.625,0.08));
#266=CARTESIAN_POINT('Origin',(1.375,20.625,0.08));
#267=CARTESIAN_POINT('',(1.5225,20.625,0.));
#268=CARTESIAN_POINT('Origin',(1.375,20.625,0.));
#269=CARTESIAN_POINT('Origin',(20.625,20.625,0.));
#270=CARTESIAN_POINT('',(20.7725,20.625,0.08));
#271=CARTESIAN_POINT('Origin',(20.625,20.625,0.08));
#272=CARTESIAN_POINT('',(20.7725,20.625,0.));
#273=CARTESIAN_POINT('Origin',(20.625,20.625,0.));
#274=CARTESIAN_POINT('Origin',(20.625,1.375,0.));
#275=CARTESIAN_POINT('',(20.7725,1.375,0.08));
#276=CARTESIAN_POINT('Origin',(20.625,1.375,0.08));
#277=CARTESIAN_POINT('',(20.7725,1.375,0.));
#278=CARTESIAN_POINT('Origin',(20.625,1.375,0.));
#279=CARTESIAN_POINT('Origin',(1.375,1.375,0.));
#280=CARTESIAN_POINT('',(1.5225,1.375,0.08));
#281=CARTESIAN_POINT('Origin',(1.375,1.375,0.08));
#282=CARTESIAN_POINT('',(1.5225,1.375,0.));
#283=CARTESIAN_POINT('Origin',(1.375,1.375,0.));
#284=CARTESIAN_POINT('Origin',(-6.73555739531044E-15,22.,0.));
#285=CARTESIAN_POINT('',(-6.73555739531044E-15,22.,0.));
#286=CARTESIAN_POINT('',(0.,0.,0.));
#287=CARTESIAN_POINT('',(-6.73555739531044E-15,22.,0.));
#288=CARTESIAN_POINT('',(0.,0.,0.08));
#289=CARTESIAN_POINT('',(0.,0.,0.));
#290=CARTESIAN_POINT('',(-6.73555739531044E-15,22.,0.08));
#291=CARTESIAN_POINT('',(-6.73555739531044E-15,22.,0.08));
#292=CARTESIAN_POINT('',(-6.73555739531044E-15,22.,0.));
#293=CARTESIAN_POINT('Origin',(22.,22.,0.));
#294=CARTESIAN_POINT('',(22.,22.,0.));
#295=CARTESIAN_POINT('',(22.,22.,0.));
#296=CARTESIAN_POINT('',(22.,22.,0.08));
#297=CARTESIAN_POINT('',(22.,22.,0.08));
#298=CARTESIAN_POINT('',(22.,22.,0.));
#299=CARTESIAN_POINT('Origin',(22.,0.,0.));
#300=CARTESIAN_POINT('',(22.,0.,0.));
#301=CARTESIAN_POINT('',(22.,0.,0.));
#302=CARTESIAN_POINT('',(22.,0.,0.08));
#303=CARTESIAN_POINT('',(22.,0.,0.08));
#304=CARTESIAN_POINT('',(22.,0.,0.));
#305=CARTESIAN_POINT('Origin',(0.,0.,0.));
#306=CARTESIAN_POINT('',(0.,0.,0.));
#307=CARTESIAN_POINT('',(0.,0.,0.08));
#308=CARTESIAN_POINT('Origin',(11.,11.,0.08));
#309=CARTESIAN_POINT('Origin',(11.,11.,0.));
#310=UNCERTAINTY_MEASURE_WITH_UNIT(LENGTH_MEASURE(0.000393700787401575),
#314,'DISTANCE_ACCURACY_VALUE',
'Maximum model space distance between geometric entities at asserted c
onnectivities');
#311=UNCERTAINTY_MEASURE_WITH_UNIT(LENGTH_MEASURE(1.E-6),#315,
'DISTANCE_ACCURACY_VALUE',
'Maximum model space distance between geometric entities at asserted c
onnectivities');
#312=(
GEOMETRIC_REPRESENTATION_CONTEXT(3)
GLOBAL_UNCERTAINTY_ASSIGNED_CONTEXT((#310))
GLOBAL_UNIT_ASSIGNED_CONTEXT((#314,#320,#317))
REPRESENTATION_CONTEXT('','3D')
);
#313=(
GEOMETRIC_REPRESENTATION_CONTEXT(3)
GLOBAL_UNCERTAINTY_ASSIGNED_CONTEXT((#311))
GLOBAL_UNIT_ASSIGNED_CONTEXT((#315,#320,#317))
REPRESENTATION_CONTEXT('','3D')
);
#314=(
CONVERSION_BASED_UNIT('__CONSTANT UNIT inch',#316)
LENGTH_UNIT()
NAMED_UNIT(#319)
);
#315=(
LENGTH_UNIT()
NAMED_UNIT(*)
SI_UNIT(.MILLI.,.METRE.)
);
#316=LENGTH_MEASURE_WITH_UNIT(LENGTH_MEASURE(25.4),#315);
#317=(
NAMED_UNIT(*)
SI_UNIT($,.STERADIAN.)
SOLID_ANGLE_UNIT()
);
#318=DIMENSIONAL_EXPONENTS(0.,0.,0.,0.,0.,0.,0.);
#319=DIMENSIONAL_EXPONENTS(1.,0.,0.,0.,0.,0.,0.);
#320=(
CONVERSION_BASED_UNIT('degree',#322)
NAMED_UNIT(#318)
PLANE_ANGLE_UNIT()
);
#321=(
NAMED_UNIT(*)
PLANE_ANGLE_UNIT()
SI_UNIT($,.RADIAN.)
);
#322=PLANE_ANGLE_MEASURE_WITH_UNIT(PLANE_ANGLE_MEASURE(0.01745329252),#321);
#323=SHAPE_DEFINITION_REPRESENTATION(#324,#325);
#324=PRODUCT_DEFINITION_SHAPE('',$,#327);
#325=SHAPE_REPRESENTATION('',(#194),#312);
#326=DESIGN_CONTEXT('part definition',#331,'design');
#327=PRODUCT_DEFINITION('HW-MP2424AL','HW-MP2424AL',#328,#326);
#328=PRODUCT_DEFINITION_FORMATION('',$,#333);
#329=PRODUCT_RELATED_PRODUCT_CATEGORY('HW-MP2424AL','HW-MP2424AL',(#333));
#330=APPLICATION_PROTOCOL_DEFINITION('international standard',
'ap203_configuration_controlled_3d_design_of_mechanical_parts_and_asse
mblies_mim_lf',2004,#331);
#331=APPLICATION_CONTEXT(
'Configuration Controlled 3D Design of Mechanical Parts and Assemblies');
#332=MECHANICAL_CONTEXT('part definition',#331,'mechanical');
#333=PRODUCT('HW-MP2424AL','HW-MP2424AL',$,(#332));
#334=PRESENTATION_STYLE_ASSIGNMENT((#336));
#335=PRESENTATION_STYLE_ASSIGNMENT((#337));
#336=SURFACE_STYLE_USAGE(.BOTH.,#338);
#337=SURFACE_STYLE_USAGE(.BOTH.,#339);
#338=SURFACE_SIDE_STYLE('',(#340));
#339=SURFACE_SIDE_STYLE('',(#341));
#340=SURFACE_STYLE_FILL_AREA(#342);
#341=SURFACE_STYLE_FILL_AREA(#343);
#342=FILL_AREA_STYLE('',(#344));
#343=FILL_AREA_STYLE('',(#345));
#344=FILL_AREA_STYLE_COLOUR('',#346);
#345=FILL_AREA_STYLE_COLOUR('',#347);
#346=COLOUR_RGB('',0.749019607843137,0.749019607843137,0.749019607843137);
#347=COLOUR_RGB('',0.956862745098039,0.956862745098039,0.956862745098039);
ENDSEC;
END-ISO-10303-21;
