ISO-10303-21;
HEADER;
/* Generated by software containing ST-Developer
 * from STEP Tools, Inc. (www.steptools.com) 
 */

FILE_DESCRIPTION(
/* description */ (''),
/* implementation_level */ '2;1');

FILE_NAME(
/* name */ 
'S:\\Stahlin_Non_Metallic\\30675\\CAD_files\\ENTEGEE_Design\\HW-MP808S
S.stp',
/* time_stamp */ '2014-03-05T12:32:19-06:00',
/* author */ ('jtigges'),
/* organization */ (''),
/* preprocessor_version */ 'ST-DEVELOPER v15.2',
/* originating_system */ 'Autodesk Inventor 2014',
/* authorisation */ '');

FILE_SCHEMA (('AUTOMOTIVE_DESIGN { 1 0 10303 214 3 1 1 }'));
ENDSEC;

DATA;
#10=SHAPE_REPRESENTATION_RELATIONSHIP('SRR','None',#316,#11);
#11=ADVANCED_BREP_SHAPE_REPRESENTATION($,(#186),#304);
#12=STYLED_ITEM($,(#325),#186);
#13=LINE($,#280,#25);
#14=LINE($,#282,#26);
#15=LINE($,#284,#27);
#16=LINE($,#285,#28);
#17=LINE($,#288,#29);
#18=LINE($,#290,#30);
#19=LINE($,#291,#31);
#20=LINE($,#294,#32);
#21=LINE($,#296,#33);
#22=LINE($,#297,#34);
#23=LINE($,#299,#35);
#24=LINE($,#300,#36);
#25=VECTOR($,#234,6.875);
#26=VECTOR($,#235,0.06);
#27=VECTOR($,#236,6.875);
#28=VECTOR($,#237,0.06);
#29=VECTOR($,#240,6.875);
#30=VECTOR($,#241,0.06);
#31=VECTOR($,#242,6.875);
#32=VECTOR($,#245,6.875);
#33=VECTOR($,#246,0.06);
#34=VECTOR($,#247,6.875);
#35=VECTOR($,#250,6.875);
#36=VECTOR($,#251,6.875);
#37=PLANE($,#200);
#38=PLANE($,#201);
#39=PLANE($,#202);
#40=PLANE($,#203);
#41=PLANE($,#204);
#42=PLANE($,#205);
#43=FACE_BOUND($,#66,.T.);
#44=FACE_BOUND($,#68,.T.);
#45=FACE_BOUND($,#70,.T.);
#46=FACE_BOUND($,#72,.T.);
#47=FACE_BOUND($,#78,.T.);
#48=FACE_BOUND($,#79,.T.);
#49=FACE_BOUND($,#80,.T.);
#50=FACE_BOUND($,#81,.T.);
#51=FACE_BOUND($,#83,.T.);
#52=FACE_BOUND($,#84,.T.);
#53=FACE_BOUND($,#85,.T.);
#54=FACE_BOUND($,#86,.T.);
#55=FACE_OUTER_BOUND($,#65,.T.);
#56=FACE_OUTER_BOUND($,#67,.T.);
#57=FACE_OUTER_BOUND($,#69,.T.);
#58=FACE_OUTER_BOUND($,#71,.T.);
#59=FACE_OUTER_BOUND($,#73,.T.);
#60=FACE_OUTER_BOUND($,#74,.T.);
#61=FACE_OUTER_BOUND($,#75,.T.);
#62=FACE_OUTER_BOUND($,#76,.T.);
#63=FACE_OUTER_BOUND($,#77,.T.);
#64=FACE_OUTER_BOUND($,#82,.T.);
#65=EDGE_LOOP($,(#131));
#66=EDGE_LOOP($,(#132));
#67=EDGE_LOOP($,(#133));
#68=EDGE_LOOP($,(#134));
#69=EDGE_LOOP($,(#135));
#70=EDGE_LOOP($,(#136));
#71=EDGE_LOOP($,(#137));
#72=EDGE_LOOP($,(#138));
#73=EDGE_LOOP($,(#139,#140,#141,#142));
#74=EDGE_LOOP($,(#143,#144,#145,#146));
#75=EDGE_LOOP($,(#147,#148,#149,#150));
#76=EDGE_LOOP($,(#151,#152,#153,#154));
#77=EDGE_LOOP($,(#155,#156,#157,#158));
#78=EDGE_LOOP($,(#159));
#79=EDGE_LOOP($,(#160));
#80=EDGE_LOOP($,(#161));
#81=EDGE_LOOP($,(#162));
#82=EDGE_LOOP($,(#163,#164,#165,#166));
#83=EDGE_LOOP($,(#167));
#84=EDGE_LOOP($,(#168));
#85=EDGE_LOOP($,(#169));
#86=EDGE_LOOP($,(#170));
#87=CIRCLE($,#189,0.125);
#88=CIRCLE($,#190,0.125);
#89=CIRCLE($,#192,0.125);
#90=CIRCLE($,#193,0.125);
#91=CIRCLE($,#195,0.125);
#92=CIRCLE($,#196,0.125);
#93=CIRCLE($,#198,0.125);
#94=CIRCLE($,#199,0.125);
#95=VERTEX_POINT($,#258);
#96=VERTEX_POINT($,#260);
#97=VERTEX_POINT($,#263);
#98=VERTEX_POINT($,#265);
#99=VERTEX_POINT($,#268);
#100=VERTEX_POINT($,#270);
#101=VERTEX_POINT($,#273);
#102=VERTEX_POINT($,#275);
#103=VERTEX_POINT($,#278);
#104=VERTEX_POINT($,#279);
#105=VERTEX_POINT($,#281);
#106=VERTEX_POINT($,#283);
#107=VERTEX_POINT($,#287);
#108=VERTEX_POINT($,#289);
#109=VERTEX_POINT($,#293);
#110=VERTEX_POINT($,#295);
#111=EDGE_CURVE($,#95,#95,#87,.T.);
#112=EDGE_CURVE($,#96,#96,#88,.T.);
#113=EDGE_CURVE($,#97,#97,#89,.T.);
#114=EDGE_CURVE($,#98,#98,#90,.T.);
#115=EDGE_CURVE($,#99,#99,#91,.T.);
#116=EDGE_CURVE($,#100,#100,#92,.T.);
#117=EDGE_CURVE($,#101,#101,#93,.T.);
#118=EDGE_CURVE($,#102,#102,#94,.T.);
#119=EDGE_CURVE($,#103,#104,#13,.T.);
#120=EDGE_CURVE($,#105,#104,#14,.T.);
#121=EDGE_CURVE($,#106,#105,#15,.T.);
#122=EDGE_CURVE($,#106,#103,#16,.T.);
#123=EDGE_CURVE($,#104,#107,#17,.T.);
#124=EDGE_CURVE($,#108,#107,#18,.T.);
#125=EDGE_CURVE($,#105,#108,#19,.T.);
#126=EDGE_CURVE($,#107,#109,#20,.T.);
#127=EDGE_CURVE($,#110,#109,#21,.T.);
#128=EDGE_CURVE($,#108,#110,#22,.T.);
#129=EDGE_CURVE($,#109,#103,#23,.T.);
#130=EDGE_CURVE($,#110,#106,#24,.T.);
#131=ORIENTED_EDGE($,*,*,#111,.F.);
#132=ORIENTED_EDGE($,*,*,#112,.F.);
#133=ORIENTED_EDGE($,*,*,#113,.F.);
#134=ORIENTED_EDGE($,*,*,#114,.F.);
#135=ORIENTED_EDGE($,*,*,#115,.F.);
#136=ORIENTED_EDGE($,*,*,#116,.F.);
#137=ORIENTED_EDGE($,*,*,#117,.F.);
#138=ORIENTED_EDGE($,*,*,#118,.F.);
#139=ORIENTED_EDGE($,*,*,#119,.T.);
#140=ORIENTED_EDGE($,*,*,#120,.F.);
#141=ORIENTED_EDGE($,*,*,#121,.F.);
#142=ORIENTED_EDGE($,*,*,#122,.T.);
#143=ORIENTED_EDGE($,*,*,#123,.T.);
#144=ORIENTED_EDGE($,*,*,#124,.F.);
#145=ORIENTED_EDGE($,*,*,#125,.F.);
#146=ORIENTED_EDGE($,*,*,#120,.T.);
#147=ORIENTED_EDGE($,*,*,#126,.T.);
#148=ORIENTED_EDGE($,*,*,#127,.F.);
#149=ORIENTED_EDGE($,*,*,#128,.F.);
#150=ORIENTED_EDGE($,*,*,#124,.T.);
#151=ORIENTED_EDGE($,*,*,#129,.T.);
#152=ORIENTED_EDGE($,*,*,#122,.F.);
#153=ORIENTED_EDGE($,*,*,#130,.F.);
#154=ORIENTED_EDGE($,*,*,#127,.T.);
#155=ORIENTED_EDGE($,*,*,#119,.F.);
#156=ORIENTED_EDGE($,*,*,#129,.F.);
#157=ORIENTED_EDGE($,*,*,#126,.F.);
#158=ORIENTED_EDGE($,*,*,#123,.F.);
#159=ORIENTED_EDGE($,*,*,#111,.T.);
#160=ORIENTED_EDGE($,*,*,#113,.T.);
#161=ORIENTED_EDGE($,*,*,#115,.T.);
#162=ORIENTED_EDGE($,*,*,#117,.T.);
#163=ORIENTED_EDGE($,*,*,#130,.T.);
#164=ORIENTED_EDGE($,*,*,#121,.T.);
#165=ORIENTED_EDGE($,*,*,#125,.T.);
#166=ORIENTED_EDGE($,*,*,#128,.T.);
#167=ORIENTED_EDGE($,*,*,#112,.T.);
#168=ORIENTED_EDGE($,*,*,#114,.T.);
#169=ORIENTED_EDGE($,*,*,#116,.T.);
#170=ORIENTED_EDGE($,*,*,#118,.T.);
#171=CYLINDRICAL_SURFACE($,#188,0.125);
#172=CYLINDRICAL_SURFACE($,#191,0.125);
#173=CYLINDRICAL_SURFACE($,#194,0.125);
#174=CYLINDRICAL_SURFACE($,#197,0.125);
#175=ADVANCED_FACE($,(#55,#43),#171,.F.);
#176=ADVANCED_FACE($,(#56,#44),#172,.F.);
#177=ADVANCED_FACE($,(#57,#45),#173,.F.);
#178=ADVANCED_FACE($,(#58,#46),#174,.F.);
#179=ADVANCED_FACE($,(#59),#37,.T.);
#180=ADVANCED_FACE($,(#60),#38,.T.);
#181=ADVANCED_FACE($,(#61),#39,.T.);
#182=ADVANCED_FACE($,(#62),#40,.T.);
#183=ADVANCED_FACE($,(#63,#47,#48,#49,#50),#41,.T.);
#184=ADVANCED_FACE($,(#64,#51,#52,#53,#54),#42,.F.);
#185=CLOSED_SHELL($,(#175,#176,#177,#178,#179,#180,#181,#182,#183,#184));
#186=MANIFOLD_SOLID_BREP('Solid1',#185);
#187=AXIS2_PLACEMENT_3D('placement',#256,#206,#207);
#188=AXIS2_PLACEMENT_3D($,#257,#208,#209);
#189=AXIS2_PLACEMENT_3D($,#259,#210,#211);
#190=AXIS2_PLACEMENT_3D($,#261,#212,#213);
#191=AXIS2_PLACEMENT_3D($,#262,#214,#215);
#192=AXIS2_PLACEMENT_3D($,#264,#216,#217);
#193=AXIS2_PLACEMENT_3D($,#266,#218,#219);
#194=AXIS2_PLACEMENT_3D($,#267,#220,#221);
#195=AXIS2_PLACEMENT_3D($,#269,#222,#223);
#196=AXIS2_PLACEMENT_3D($,#271,#224,#225);
#197=AXIS2_PLACEMENT_3D($,#272,#226,#227);
#198=AXIS2_PLACEMENT_3D($,#274,#228,#229);
#199=AXIS2_PLACEMENT_3D($,#276,#230,#231);
#200=AXIS2_PLACEMENT_3D($,#277,#232,#233);
#201=AXIS2_PLACEMENT_3D($,#286,#238,#239);
#202=AXIS2_PLACEMENT_3D($,#292,#243,#244);
#203=AXIS2_PLACEMENT_3D($,#298,#248,#249);
#204=AXIS2_PLACEMENT_3D($,#301,#252,#253);
#205=AXIS2_PLACEMENT_3D($,#302,#254,#255);
#206=DIRECTION('axis',(0.,0.,1.));
#207=DIRECTION('refdir',(1.,0.,0.));
#208=DIRECTION('center_axis',(0.,0.,1.));
#209=DIRECTION('ref_axis',(-1.,0.,0.));
#210=DIRECTION('center_axis',(0.,0.,-1.));
#211=DIRECTION('ref_axis',(-1.,0.,0.));
#212=DIRECTION('center_axis',(0.,0.,1.));
#213=DIRECTION('ref_axis',(-1.,0.,0.));
#214=DIRECTION('center_axis',(0.,0.,1.));
#215=DIRECTION('ref_axis',(-1.,0.,0.));
#216=DIRECTION('center_axis',(0.,0.,-1.));
#217=DIRECTION('ref_axis',(-1.,0.,0.));
#218=DIRECTION('center_axis',(0.,0.,1.));
#219=DIRECTION('ref_axis',(-1.,0.,0.));
#220=DIRECTION('center_axis',(0.,0.,1.));
#221=DIRECTION('ref_axis',(-1.,0.,0.));
#222=DIRECTION('center_axis',(0.,0.,-1.));
#223=DIRECTION('ref_axis',(-1.,0.,0.));
#224=DIRECTION('center_axis',(0.,0.,1.));
#225=DIRECTION('ref_axis',(-1.,0.,0.));
#226=DIRECTION('center_axis',(0.,0.,1.));
#227=DIRECTION('ref_axis',(-1.,0.,0.));
#228=DIRECTION('center_axis',(0.,0.,-1.));
#229=DIRECTION('ref_axis',(-1.,0.,0.));
#230=DIRECTION('center_axis',(0.,0.,1.));
#231=DIRECTION('ref_axis',(-1.,0.,0.));
#232=DIRECTION('center_axis',(1.,0.,0.));
#233=DIRECTION('ref_axis',(0.,0.,-1.));
#234=DIRECTION($,(0.,-1.,0.));
#235=DIRECTION($,(0.,0.,1.));
#236=DIRECTION($,(0.,-1.,0.));
#237=DIRECTION($,(0.,0.,1.));
#238=DIRECTION('center_axis',(0.,-1.,0.));
#239=DIRECTION('ref_axis',(0.,0.,-1.));
#240=DIRECTION($,(-1.,0.,0.));
#241=DIRECTION($,(0.,0.,1.));
#242=DIRECTION($,(-1.,0.,0.));
#243=DIRECTION('center_axis',(-1.,0.,0.));
#244=DIRECTION('ref_axis',(0.,0.,1.));
#245=DIRECTION($,(0.,1.,0.));
#246=DIRECTION($,(0.,0.,1.));
#247=DIRECTION($,(0.,1.,0.));
#248=DIRECTION('center_axis',(0.,1.,0.));
#249=DIRECTION('ref_axis',(0.,0.,1.));
#250=DIRECTION($,(1.,0.,0.));
#251=DIRECTION($,(1.,0.,0.));
#252=DIRECTION('center_axis',(0.,0.,1.));
#253=DIRECTION('ref_axis',(1.,0.,0.));
#254=DIRECTION('center_axis',(0.,0.,1.));
#255=DIRECTION('ref_axis',(1.,0.,0.));
#256=CARTESIAN_POINT('',(0.,0.,0.));
#257=CARTESIAN_POINT('Origin',(3.125,-3.125,0.));
#258=CARTESIAN_POINT('',(3.25,-3.125,0.06));
#259=CARTESIAN_POINT('Origin',(3.125,-3.125,0.06));
#260=CARTESIAN_POINT('',(3.25,-3.125,0.));
#261=CARTESIAN_POINT('Origin',(3.125,-3.125,0.));
#262=CARTESIAN_POINT('Origin',(3.125,3.125,0.));
#263=CARTESIAN_POINT('',(3.25,3.125,0.06));
#264=CARTESIAN_POINT('Origin',(3.125,3.125,0.06));
#265=CARTESIAN_POINT('',(3.25,3.125,0.));
#266=CARTESIAN_POINT('Origin',(3.125,3.125,0.));
#267=CARTESIAN_POINT('Origin',(-3.125,3.125,0.));
#268=CARTESIAN_POINT('',(-3.,3.125,0.06));
#269=CARTESIAN_POINT('Origin',(-3.125,3.125,0.06));
#270=CARTESIAN_POINT('',(-3.,3.125,0.));
#271=CARTESIAN_POINT('Origin',(-3.125,3.125,0.));
#272=CARTESIAN_POINT('Origin',(-3.125,-3.125,0.));
#273=CARTESIAN_POINT('',(-3.,-3.125,0.06));
#274=CARTESIAN_POINT('Origin',(-3.125,-3.125,0.06));
#275=CARTESIAN_POINT('',(-3.,-3.125,0.));
#276=CARTESIAN_POINT('Origin',(-3.125,-3.125,0.));
#277=CARTESIAN_POINT('Origin',(3.4375,3.4375,0.));
#278=CARTESIAN_POINT('',(3.4375,3.4375,0.06));
#279=CARTESIAN_POINT('',(3.4375,-3.4375,0.06));
#280=CARTESIAN_POINT($,(3.4375,3.4375,0.06));
#281=CARTESIAN_POINT('',(3.4375,-3.4375,0.));
#282=CARTESIAN_POINT($,(3.4375,-3.4375,0.));
#283=CARTESIAN_POINT('',(3.4375,3.4375,0.));
#284=CARTESIAN_POINT($,(3.4375,3.4375,0.));
#285=CARTESIAN_POINT($,(3.4375,3.4375,0.));
#286=CARTESIAN_POINT('Origin',(3.4375,-3.4375,0.));
#287=CARTESIAN_POINT('',(-3.4375,-3.4375,0.06));
#288=CARTESIAN_POINT($,(3.4375,-3.4375,0.06));
#289=CARTESIAN_POINT('',(-3.4375,-3.4375,0.));
#290=CARTESIAN_POINT($,(-3.4375,-3.4375,0.));
#291=CARTESIAN_POINT($,(3.4375,-3.4375,0.));
#292=CARTESIAN_POINT('Origin',(-3.4375,-3.4375,0.));
#293=CARTESIAN_POINT('',(-3.4375,3.4375,0.06));
#294=CARTESIAN_POINT($,(-3.4375,-3.4375,0.06));
#295=CARTESIAN_POINT('',(-3.4375,3.4375,0.));
#296=CARTESIAN_POINT($,(-3.4375,3.4375,0.));
#297=CARTESIAN_POINT($,(-3.4375,-3.4375,0.));
#298=CARTESIAN_POINT('Origin',(-3.4375,3.4375,0.));
#299=CARTESIAN_POINT($,(-3.4375,3.4375,0.06));
#300=CARTESIAN_POINT($,(-3.4375,3.4375,0.));
#301=CARTESIAN_POINT('Origin',(-3.496765E-016,1.748383E-016,0.06));
#302=CARTESIAN_POINT('Origin',(-3.496765E-016,1.748383E-016,0.));
#303=UNCERTAINTY_MEASURE_WITH_UNIT(LENGTH_MEASURE(0.000393700787401575),
#305,'DISTANCE_ACCURACY_VALUE',
'Maximum model space distance between geometric entities at asserted c
onnectivities');
#304=(
GEOMETRIC_REPRESENTATION_CONTEXT(3)
GLOBAL_UNCERTAINTY_ASSIGNED_CONTEXT((#303))
GLOBAL_UNIT_ASSIGNED_CONTEXT((#305,#311,#308))
REPRESENTATION_CONTEXT('','3D')
);
#305=(
CONVERSION_BASED_UNIT('__CONSTANT UNIT inch',#307)
LENGTH_UNIT()
NAMED_UNIT(#310)
);
#306=(
LENGTH_UNIT()
NAMED_UNIT(*)
SI_UNIT(.MILLI.,.METRE.)
);
#307=LENGTH_MEASURE_WITH_UNIT(LENGTH_MEASURE(25.4),#306);
#308=(
NAMED_UNIT(*)
SI_UNIT($,.STERADIAN.)
SOLID_ANGLE_UNIT()
);
#309=DIMENSIONAL_EXPONENTS(0.,0.,0.,0.,0.,0.,0.);
#310=DIMENSIONAL_EXPONENTS(1.,0.,0.,0.,0.,0.,0.);
#311=(
CONVERSION_BASED_UNIT('degree',#313)
NAMED_UNIT(#309)
PLANE_ANGLE_UNIT()
);
#312=(
NAMED_UNIT(*)
PLANE_ANGLE_UNIT()
SI_UNIT($,.RADIAN.)
);
#313=PLANE_ANGLE_MEASURE_WITH_UNIT(PLANE_ANGLE_MEASURE(0.01745329252),#312);
#314=SHAPE_DEFINITION_REPRESENTATION(#315,#316);
#315=PRODUCT_DEFINITION_SHAPE('',$,#318);
#316=SHAPE_REPRESENTATION('',(#187),#304);
#317=PRODUCT_DEFINITION_CONTEXT('3D Mechanical Parts',#321,'design');
#318=PRODUCT_DEFINITION('BP88SS_STP','BP88SS_STP',#319,#317);
#319=PRODUCT_DEFINITION_FORMATION('',$,#323);
#320=APPLICATION_PROTOCOL_DEFINITION('international standard',
'automotive_design',2009,#321);
#321=APPLICATION_CONTEXT(
'Core Data for Automotive Mechanical Design Process');
#322=PRODUCT_CONTEXT('3D Mechanical Parts',#321,'mechanical');
#323=PRODUCT('BP88SS_STP','BP88SS_STP',$,(#322));
#324=PRESENTATION_STYLE_ASSIGNMENT((#326));
#325=PRESENTATION_STYLE_ASSIGNMENT((#327));
#326=SURFACE_STYLE_USAGE(.BOTH.,#328);
#327=SURFACE_STYLE_USAGE(.BOTH.,#329);
#328=SURFACE_SIDE_STYLE($,(#330));
#329=SURFACE_SIDE_STYLE($,(#331));
#330=SURFACE_STYLE_FILL_AREA(#332);
#331=SURFACE_STYLE_FILL_AREA(#333);
#332=FILL_AREA_STYLE($,(#334));
#333=FILL_AREA_STYLE($,(#335));
#334=FILL_AREA_STYLE_COLOUR($,#336);
#335=FILL_AREA_STYLE_COLOUR($,#337);
#336=COLOUR_RGB('',0.749019607843137,0.749019607843137,0.749019607843137);
#337=COLOUR_RGB('',0.949019607843137,0.925490196078431,0.933333333333333);
ENDSEC;
END-ISO-10303-21;
