ISO-10303-21;
HEADER;
FILE_DESCRIPTION((''),'2;1');
FILE_NAME('KM-9','2014-05-29T',('md30'),
('Koyo Electronics Industries Co., LTD'),
'PRO/ENGINEER BY PARAMETRIC TECHNOLOGY CORPORATION, 2010020',
'PRO/ENGINEER BY PARAMETRIC TECHNOLOGY CORPORATION, 2010020','');
FILE_SCHEMA(('AUTOMOTIVE_DESIGN_CC2 { 1 2 10303 214 -1 1 5 2 }'));
ENDSEC;
DATA;
#4=DIRECTION('',(1.E0,0.E0,0.E0));
#5=VECTOR('',#4,1.5E1);
#6=CARTESIAN_POINT('',(-7.5E0,0.E0,0.E0));
#7=LINE('',#6,#5);
#8=DRAUGHTING_PRE_DEFINED_CURVE_FONT('continuous');
#9=CURVE_STYLE('',#8,POSITIVE_LENGTH_MEASURE(2.E-2),#1);
#10=PRESENTATION_STYLE_ASSIGNMENT((#9));
#11=STYLED_ITEM('',(#10),#7);
#12=DIRECTION('',(0.E0,0.E0,-1.E0));
#13=VECTOR('',#12,2.E0);
#14=CARTESIAN_POINT('',(7.5E0,0.E0,0.E0));
#15=LINE('',#14,#13);
#16=CURVE_STYLE('',#8,POSITIVE_LENGTH_MEASURE(2.E-2),#1);
#17=PRESENTATION_STYLE_ASSIGNMENT((#16));
#18=STYLED_ITEM('',(#17),#15);
#19=DIRECTION('',(-1.E0,0.E0,0.E0));
#20=VECTOR('',#19,1.5E1);
#21=CARTESIAN_POINT('',(7.5E0,0.E0,-2.E0));
#22=LINE('',#21,#20);
#23=CURVE_STYLE('',#8,POSITIVE_LENGTH_MEASURE(2.E-2),#1);
#24=PRESENTATION_STYLE_ASSIGNMENT((#23));
#25=STYLED_ITEM('',(#24),#22);
#26=DIRECTION('',(0.E0,0.E0,1.E0));
#27=VECTOR('',#26,2.E0);
#28=CARTESIAN_POINT('',(-7.5E0,0.E0,-2.E0));
#29=LINE('',#28,#27);
#30=CURVE_STYLE('',#8,POSITIVE_LENGTH_MEASURE(2.E-2),#1);
#31=PRESENTATION_STYLE_ASSIGNMENT((#30));
#32=STYLED_ITEM('',(#31),#29);
#33=CARTESIAN_POINT('',(-7.5E0,3.1E0,0.E0));
#34=DIRECTION('',(-1.E0,0.E0,0.E0));
#35=DIRECTION('',(0.E0,1.E0,0.E0));
#36=AXIS2_PLACEMENT_3D('',#33,#34,#35);
#38=CURVE_STYLE('',#8,POSITIVE_LENGTH_MEASURE(2.E-2),#1);
#39=PRESENTATION_STYLE_ASSIGNMENT((#38));
#40=STYLED_ITEM('',(#39),#37);
#41=DIRECTION('',(0.E0,-1.E0,0.E0));
#42=VECTOR('',#41,2.E0);
#43=CARTESIAN_POINT('',(-7.5E0,5.1E0,1.4E1));
#44=LINE('',#43,#42);
#45=CURVE_STYLE('',#8,POSITIVE_LENGTH_MEASURE(2.E-2),#1);
#46=PRESENTATION_STYLE_ASSIGNMENT((#45));
#47=STYLED_ITEM('',(#46),#44);
#48=DIRECTION('',(0.E0,0.E0,-1.E0));
#49=VECTOR('',#48,1.4E1);
#50=CARTESIAN_POINT('',(-7.5E0,3.1E0,1.4E1));
#51=LINE('',#50,#49);
#52=CURVE_STYLE('',#8,POSITIVE_LENGTH_MEASURE(2.E-2),#1);
#53=PRESENTATION_STYLE_ASSIGNMENT((#52));
#54=STYLED_ITEM('',(#53),#51);
#55=DIRECTION('',(0.E0,1.E0,0.E0));
#56=VECTOR('',#55,3.1E0);
#57=CARTESIAN_POINT('',(-7.5E0,0.E0,0.E0));
#58=LINE('',#57,#56);
#59=CURVE_STYLE('',#8,POSITIVE_LENGTH_MEASURE(2.E-2),#1);
#60=PRESENTATION_STYLE_ASSIGNMENT((#59));
#61=STYLED_ITEM('',(#60),#58);
#62=DIRECTION('',(0.E0,1.E0,0.E0));
#63=VECTOR('',#62,3.1E0);
#64=CARTESIAN_POINT('',(-7.5E0,0.E0,-2.E0));
#65=LINE('',#64,#63);
#66=CURVE_STYLE('',#8,POSITIVE_LENGTH_MEASURE(2.E-2),#1);
#67=PRESENTATION_STYLE_ASSIGNMENT((#66));
#68=STYLED_ITEM('',(#67),#65);
#69=DIRECTION('',(-1.E0,0.E0,0.E0));
#70=VECTOR('',#69,1.5E1);
#71=CARTESIAN_POINT('',(7.5E0,3.1E0,-2.E0));
#72=LINE('',#71,#70);
#73=CURVE_STYLE('',#8,POSITIVE_LENGTH_MEASURE(2.E-2),#1);
#74=PRESENTATION_STYLE_ASSIGNMENT((#73));
#75=STYLED_ITEM('',(#74),#72);
#76=DIRECTION('',(0.E0,1.E0,0.E0));
#77=VECTOR('',#76,3.1E0);
#78=CARTESIAN_POINT('',(7.5E0,0.E0,-2.E0));
#79=LINE('',#78,#77);
#80=CURVE_STYLE('',#8,POSITIVE_LENGTH_MEASURE(2.E-2),#1);
#81=PRESENTATION_STYLE_ASSIGNMENT((#80));
#82=STYLED_ITEM('',(#81),#79);
#83=CARTESIAN_POINT('',(7.5E0,3.1E0,0.E0));
#84=DIRECTION('',(1.E0,0.E0,0.E0));
#85=DIRECTION('',(0.E0,0.E0,-1.E0));
#86=AXIS2_PLACEMENT_3D('',#83,#84,#85);
#88=CURVE_STYLE('',#8,POSITIVE_LENGTH_MEASURE(2.E-2),#1);
#89=PRESENTATION_STYLE_ASSIGNMENT((#88));
#90=STYLED_ITEM('',(#89),#87);
#91=DIRECTION('',(0.E0,1.E0,0.E0));
#92=VECTOR('',#91,3.1E0);
#93=CARTESIAN_POINT('',(7.5E0,0.E0,0.E0));
#94=LINE('',#93,#92);
#95=CURVE_STYLE('',#8,POSITIVE_LENGTH_MEASURE(2.E-2),#1);
#96=PRESENTATION_STYLE_ASSIGNMENT((#95));
#97=STYLED_ITEM('',(#96),#94);
#98=DIRECTION('',(0.E0,0.E0,-1.E0));
#99=VECTOR('',#98,1.4E1);
#100=CARTESIAN_POINT('',(7.5E0,3.1E0,1.4E1));
#101=LINE('',#100,#99);
#102=CURVE_STYLE('',#8,POSITIVE_LENGTH_MEASURE(2.E-2),#1);
#103=PRESENTATION_STYLE_ASSIGNMENT((#102));
#104=STYLED_ITEM('',(#103),#101);
#105=DIRECTION('',(0.E0,-1.E0,0.E0));
#106=VECTOR('',#105,2.E0);
#107=CARTESIAN_POINT('',(7.5E0,5.1E0,1.4E1));
#108=LINE('',#107,#106);
#109=CURVE_STYLE('',#8,POSITIVE_LENGTH_MEASURE(2.E-2),#1);
#110=PRESENTATION_STYLE_ASSIGNMENT((#109));
#111=STYLED_ITEM('',(#110),#108);
#112=CARTESIAN_POINT('',(0.E0,3.1E0,7.E0));
#113=DIRECTION('',(0.E0,-1.E0,0.E0));
#114=DIRECTION('',(1.E0,0.E0,0.E0));
#115=AXIS2_PLACEMENT_3D('',#112,#113,#114);
#117=CURVE_STYLE('',#8,POSITIVE_LENGTH_MEASURE(2.E-2),#1);
#118=PRESENTATION_STYLE_ASSIGNMENT((#117));
#119=STYLED_ITEM('',(#118),#116);
#120=CARTESIAN_POINT('',(0.E0,3.1E0,7.E0));
#121=DIRECTION('',(0.E0,-1.E0,0.E0));
#122=DIRECTION('',(-1.E0,0.E0,0.E0));
#123=AXIS2_PLACEMENT_3D('',#120,#121,#122);
#125=CURVE_STYLE('',#8,POSITIVE_LENGTH_MEASURE(2.E-2),#1);
#126=PRESENTATION_STYLE_ASSIGNMENT((#125));
#127=STYLED_ITEM('',(#126),#124);
#128=DIRECTION('',(-7.071067811865E-1,0.E0,7.071067811865E-1));
#129=VECTOR('',#128,2.828427124746E0);
#130=CARTESIAN_POINT('',(7.5E0,3.1E0,1.4E1));
#131=LINE('',#130,#129);
#132=CURVE_STYLE('',#8,POSITIVE_LENGTH_MEASURE(2.E-2),#1);
#133=PRESENTATION_STYLE_ASSIGNMENT((#132));
#134=STYLED_ITEM('',(#133),#131);
#135=DIRECTION('',(1.E0,0.E0,0.E0));
#136=VECTOR('',#135,1.5E1);
#137=CARTESIAN_POINT('',(-7.5E0,3.1E0,0.E0));
#138=LINE('',#137,#136);
#139=CURVE_STYLE('',#8,POSITIVE_LENGTH_MEASURE(2.E-2),#1);
#140=PRESENTATION_STYLE_ASSIGNMENT((#139));
#141=STYLED_ITEM('',(#140),#138);
#142=DIRECTION('',(-7.071067811865E-1,0.E0,-7.071067811865E-1));
#143=VECTOR('',#142,2.828427124746E0);
#144=CARTESIAN_POINT('',(-5.5E0,3.1E0,1.6E1));
#145=LINE('',#144,#143);
#146=CURVE_STYLE('',#8,POSITIVE_LENGTH_MEASURE(2.E-2),#1);
#147=PRESENTATION_STYLE_ASSIGNMENT((#146));
#148=STYLED_ITEM('',(#147),#145);
#149=DIRECTION('',(0.E0,-1.E0,0.E0));
#150=VECTOR('',#149,2.E0);
#151=CARTESIAN_POINT('',(2.75E0,5.1E0,7.E0));
#152=LINE('',#151,#150);
#153=CURVE_STYLE('',#8,POSITIVE_LENGTH_MEASURE(2.E-2),#1);
#154=PRESENTATION_STYLE_ASSIGNMENT((#153));
#155=STYLED_ITEM('',(#154),#152);
#156=CARTESIAN_POINT('',(0.E0,5.1E0,7.E0));
#157=DIRECTION('',(0.E0,-1.E0,0.E0));
#158=DIRECTION('',(1.E0,0.E0,0.E0));
#159=AXIS2_PLACEMENT_3D('',#156,#157,#158);
#161=CURVE_STYLE('',#8,POSITIVE_LENGTH_MEASURE(2.E-2),#1);
#162=PRESENTATION_STYLE_ASSIGNMENT((#161));
#163=STYLED_ITEM('',(#162),#160);
#164=CARTESIAN_POINT('',(0.E0,5.1E0,7.E0));
#165=DIRECTION('',(0.E0,-1.E0,0.E0));
#166=DIRECTION('',(-1.E0,0.E0,0.E0));
#167=AXIS2_PLACEMENT_3D('',#164,#165,#166);
#169=CURVE_STYLE('',#8,POSITIVE_LENGTH_MEASURE(2.E-2),#1);
#170=PRESENTATION_STYLE_ASSIGNMENT((#169));
#171=STYLED_ITEM('',(#170),#168);
#172=DIRECTION('',(-1.E0,0.E0,0.E0));
#173=VECTOR('',#172,1.5E1);
#174=CARTESIAN_POINT('',(7.5E0,5.1E0,0.E0));
#175=LINE('',#174,#173);
#176=CURVE_STYLE('',#8,POSITIVE_LENGTH_MEASURE(2.E-2),#1);
#177=PRESENTATION_STYLE_ASSIGNMENT((#176));
#178=STYLED_ITEM('',(#177),#175);
#179=DIRECTION('',(0.E0,0.E0,-1.E0));
#180=VECTOR('',#179,1.4E1);
#181=CARTESIAN_POINT('',(7.5E0,5.1E0,1.4E1));
#182=LINE('',#181,#180);
#183=CURVE_STYLE('',#8,POSITIVE_LENGTH_MEASURE(2.E-2),#1);
#184=PRESENTATION_STYLE_ASSIGNMENT((#183));
#185=STYLED_ITEM('',(#184),#182);
#186=DIRECTION('',(7.071067811865E-1,0.E0,-7.071067811865E-1));
#187=VECTOR('',#186,2.828427124746E0);
#188=CARTESIAN_POINT('',(5.5E0,5.1E0,1.6E1));
#189=LINE('',#188,#187);
#190=CURVE_STYLE('',#8,POSITIVE_LENGTH_MEASURE(2.E-2),#1);
#191=PRESENTATION_STYLE_ASSIGNMENT((#190));
#192=STYLED_ITEM('',(#191),#189);
#193=DIRECTION('',(1.E0,0.E0,0.E0));
#194=VECTOR('',#193,1.1E1);
#195=CARTESIAN_POINT('',(-5.5E0,5.1E0,1.6E1));
#196=LINE('',#195,#194);
#197=CURVE_STYLE('',#8,POSITIVE_LENGTH_MEASURE(2.E-2),#1);
#198=PRESENTATION_STYLE_ASSIGNMENT((#197));
#199=STYLED_ITEM('',(#198),#196);
#200=DIRECTION('',(7.071067811865E-1,0.E0,7.071067811865E-1));
#201=VECTOR('',#200,2.828427124746E0);
#202=CARTESIAN_POINT('',(-7.5E0,5.1E0,1.4E1));
#203=LINE('',#202,#201);
#204=CURVE_STYLE('',#8,POSITIVE_LENGTH_MEASURE(2.E-2),#1);
#205=PRESENTATION_STYLE_ASSIGNMENT((#204));
#206=STYLED_ITEM('',(#205),#203);
#207=DIRECTION('',(0.E0,0.E0,1.E0));
#208=VECTOR('',#207,1.4E1);
#209=CARTESIAN_POINT('',(-7.5E0,5.1E0,0.E0));
#210=LINE('',#209,#208);
#211=CURVE_STYLE('',#8,POSITIVE_LENGTH_MEASURE(2.E-2),#1);
#212=PRESENTATION_STYLE_ASSIGNMENT((#211));
#213=STYLED_ITEM('',(#212),#210);
#214=DIRECTION('',(0.E0,-1.E0,0.E0));
#215=VECTOR('',#214,2.E0);
#216=CARTESIAN_POINT('',(-2.75E0,5.1E0,7.E0));
#217=LINE('',#216,#215);
#218=CURVE_STYLE('',#8,POSITIVE_LENGTH_MEASURE(2.E-2),#1);
#219=PRESENTATION_STYLE_ASSIGNMENT((#218));
#220=STYLED_ITEM('',(#219),#217);
#221=DIRECTION('',(0.E0,-1.E0,0.E0));
#222=VECTOR('',#221,2.E0);
#223=CARTESIAN_POINT('',(5.5E0,5.1E0,1.6E1));
#224=LINE('',#223,#222);
#225=CURVE_STYLE('',#8,POSITIVE_LENGTH_MEASURE(2.E-2),#1);
#226=PRESENTATION_STYLE_ASSIGNMENT((#225));
#227=STYLED_ITEM('',(#226),#224);
#228=DIRECTION('',(1.E0,0.E0,0.E0));
#229=VECTOR('',#228,1.1E1);
#230=CARTESIAN_POINT('',(-5.5E0,3.1E0,1.6E1));
#231=LINE('',#230,#229);
#232=CURVE_STYLE('',#8,POSITIVE_LENGTH_MEASURE(2.E-2),#1);
#233=PRESENTATION_STYLE_ASSIGNMENT((#232));
#234=STYLED_ITEM('',(#233),#231);
#235=DIRECTION('',(0.E0,-1.E0,0.E0));
#236=VECTOR('',#235,2.E0);
#237=CARTESIAN_POINT('',(-5.5E0,5.1E0,1.6E1));
#238=LINE('',#237,#236);
#239=CURVE_STYLE('',#8,POSITIVE_LENGTH_MEASURE(2.E-2),#1);
#240=PRESENTATION_STYLE_ASSIGNMENT((#239));
#241=STYLED_ITEM('',(#240),#238);
#242=CARTESIAN_POINT('',(7.5E0,0.E0,-2.E0));
#243=CARTESIAN_POINT('',(-7.5E0,0.E0,-2.E0));
#244=VERTEX_POINT('',#242);
#245=VERTEX_POINT('',#243);
#246=CARTESIAN_POINT('',(-7.5E0,0.E0,0.E0));
#247=CARTESIAN_POINT('',(7.5E0,0.E0,0.E0));
#248=VERTEX_POINT('',#246);
#249=VERTEX_POINT('',#247);
#250=CARTESIAN_POINT('',(-7.5E0,3.1E0,0.E0));
#251=VERTEX_POINT('',#250);
#252=CARTESIAN_POINT('',(7.5E0,3.1E0,0.E0));
#253=VERTEX_POINT('',#252);
#254=CARTESIAN_POINT('',(2.75E0,5.1E0,7.E0));
#255=CARTESIAN_POINT('',(-2.75E0,5.1E0,7.E0));
#256=VERTEX_POINT('',#254);
#257=VERTEX_POINT('',#255);
#258=CARTESIAN_POINT('',(2.75E0,3.1E0,7.E0));
#259=CARTESIAN_POINT('',(-2.75E0,3.1E0,7.E0));
#260=VERTEX_POINT('',#258);
#261=VERTEX_POINT('',#259);
#262=CARTESIAN_POINT('',(7.5E0,3.1E0,1.4E1));
#263=CARTESIAN_POINT('',(5.5E0,3.1E0,1.6E1));
#264=VERTEX_POINT('',#262);
#265=VERTEX_POINT('',#263);
#266=CARTESIAN_POINT('',(5.5E0,5.1E0,1.6E1));
#267=VERTEX_POINT('',#266);
#268=CARTESIAN_POINT('',(7.5E0,5.1E0,1.4E1));
#269=VERTEX_POINT('',#268);
#270=CARTESIAN_POINT('',(-5.5E0,3.1E0,1.6E1));
#271=CARTESIAN_POINT('',(-7.5E0,3.1E0,1.4E1));
#272=VERTEX_POINT('',#270);
#273=VERTEX_POINT('',#271);
#274=CARTESIAN_POINT('',(-7.5E0,5.1E0,1.4E1));
#275=VERTEX_POINT('',#274);
#276=CARTESIAN_POINT('',(-5.5E0,5.1E0,1.6E1));
#277=VERTEX_POINT('',#276);
#278=CARTESIAN_POINT('',(-7.5E0,5.1E0,0.E0));
#279=CARTESIAN_POINT('',(-7.5E0,3.1E0,-2.E0));
#280=VERTEX_POINT('',#278);
#281=VERTEX_POINT('',#279);
#282=CARTESIAN_POINT('',(7.5E0,3.1E0,-2.E0));
#283=VERTEX_POINT('',#282);
#284=CARTESIAN_POINT('',(7.5E0,5.1E0,0.E0));
#285=VERTEX_POINT('',#284);
#286=CARTESIAN_POINT('',(0.E0,0.E0,0.E0));
#287=DIRECTION('',(0.E0,1.E0,0.E0));
#288=DIRECTION('',(1.E0,0.E0,0.E0));
#289=AXIS2_PLACEMENT_3D('',#286,#287,#288);
#290=PLANE('',#289);
#292=ORIENTED_EDGE('',*,*,#291,.T.);
#294=ORIENTED_EDGE('',*,*,#293,.T.);
#296=ORIENTED_EDGE('',*,*,#295,.T.);
#298=ORIENTED_EDGE('',*,*,#297,.T.);
#299=EDGE_LOOP('',(#292,#294,#296,#298));
#300=FACE_OUTER_BOUND('',#299,.F.);
#302=CARTESIAN_POINT('',(-9.E0,0.E0,0.E0));
#303=DIRECTION('',(0.E0,0.E0,-1.E0));
#304=DIRECTION('',(0.E0,1.E0,0.E0));
#305=AXIS2_PLACEMENT_3D('',#302,#303,#304);
#306=PLANE('',#305);
#307=ORIENTED_EDGE('',*,*,#291,.F.);
#309=ORIENTED_EDGE('',*,*,#308,.T.);
#311=ORIENTED_EDGE('',*,*,#310,.T.);
#313=ORIENTED_EDGE('',*,*,#312,.F.);
#314=EDGE_LOOP('',(#307,#309,#311,#313));
#315=FACE_OUTER_BOUND('',#314,.F.);
#317=CARTESIAN_POINT('',(-7.5E0,0.E0,-2.E0));
#318=DIRECTION('',(-1.E0,0.E0,0.E0));
#319=DIRECTION('',(0.E0,0.E0,1.E0));
#320=AXIS2_PLACEMENT_3D('',#317,#318,#319);
#321=PLANE('',#320);
#323=ORIENTED_EDGE('',*,*,#322,.F.);
#325=ORIENTED_EDGE('',*,*,#324,.T.);
#327=ORIENTED_EDGE('',*,*,#326,.T.);
#329=ORIENTED_EDGE('',*,*,#328,.T.);
#330=ORIENTED_EDGE('',*,*,#308,.F.);
#331=ORIENTED_EDGE('',*,*,#297,.F.);
#333=ORIENTED_EDGE('',*,*,#332,.T.);
#334=EDGE_LOOP('',(#323,#325,#327,#329,#330,#331,#333));
#335=FACE_OUTER_BOUND('',#334,.F.);
#337=CARTESIAN_POINT('',(7.536725396279E0,3.1E0,0.E0));
#338=DIRECTION('',(-1.E0,0.E0,0.E0));
#339=DIRECTION('',(0.E0,1.E0,0.E0));
#340=AXIS2_PLACEMENT_3D('',#337,#338,#339);
#341=CYLINDRICAL_SURFACE('',#340,2.E0);
#342=ORIENTED_EDGE('',*,*,#322,.T.);
#344=ORIENTED_EDGE('',*,*,#343,.F.);
#346=ORIENTED_EDGE('',*,*,#345,.T.);
#348=ORIENTED_EDGE('',*,*,#347,.T.);
#349=EDGE_LOOP('',(#342,#344,#346,#348));
#350=FACE_OUTER_BOUND('',#349,.F.);
#352=CARTESIAN_POINT('',(7.5E0,0.E0,-2.E0));
#353=DIRECTION('',(0.E0,0.E0,-1.E0));
#354=DIRECTION('',(-1.E0,0.E0,0.E0));
#355=AXIS2_PLACEMENT_3D('',#352,#353,#354);
#356=PLANE('',#355);
#357=ORIENTED_EDGE('',*,*,#343,.T.);
#358=ORIENTED_EDGE('',*,*,#332,.F.);
#359=ORIENTED_EDGE('',*,*,#295,.F.);
#361=ORIENTED_EDGE('',*,*,#360,.T.);
#362=EDGE_LOOP('',(#357,#358,#359,#361));
#363=FACE_OUTER_BOUND('',#362,.F.);
#365=CARTESIAN_POINT('',(7.5E0,0.E0,1.6E1));
#366=DIRECTION('',(1.E0,0.E0,0.E0));
#367=DIRECTION('',(0.E0,0.E0,-1.E0));
#368=AXIS2_PLACEMENT_3D('',#365,#366,#367);
#369=PLANE('',#368);
#370=ORIENTED_EDGE('',*,*,#345,.F.);
#371=ORIENTED_EDGE('',*,*,#360,.F.);
#372=ORIENTED_EDGE('',*,*,#293,.F.);
#373=ORIENTED_EDGE('',*,*,#312,.T.);
#375=ORIENTED_EDGE('',*,*,#374,.F.);
#377=ORIENTED_EDGE('',*,*,#376,.F.);
#379=ORIENTED_EDGE('',*,*,#378,.T.);
#380=EDGE_LOOP('',(#370,#371,#372,#373,#375,#377,#379));
#381=FACE_OUTER_BOUND('',#380,.F.);
#383=CARTESIAN_POINT('',(-9.E0,3.1E0,0.E0));
#384=DIRECTION('',(0.E0,1.E0,0.E0));
#385=DIRECTION('',(0.E0,0.E0,1.E0));
#386=AXIS2_PLACEMENT_3D('',#383,#384,#385);
#387=PLANE('',#386);
#389=ORIENTED_EDGE('',*,*,#388,.F.);
#390=ORIENTED_EDGE('',*,*,#374,.T.);
#391=ORIENTED_EDGE('',*,*,#310,.F.);
#392=ORIENTED_EDGE('',*,*,#328,.F.);
#394=ORIENTED_EDGE('',*,*,#393,.F.);
#396=ORIENTED_EDGE('',*,*,#395,.T.);
#397=EDGE_LOOP('',(#389,#390,#391,#392,#394,#396));
#398=FACE_OUTER_BOUND('',#397,.F.);
#400=ORIENTED_EDGE('',*,*,#399,.T.);
#402=ORIENTED_EDGE('',*,*,#401,.T.);
#403=EDGE_LOOP('',(#400,#402));
#404=FACE_BOUND('',#403,.F.);
#406=CARTESIAN_POINT('',(0.E0,5.1E0,7.E0));
#407=DIRECTION('',(0.E0,-1.E0,0.E0));
#408=DIRECTION('',(1.E0,0.E0,0.E0));
#409=AXIS2_PLACEMENT_3D('',#406,#407,#408);
#410=CYLINDRICAL_SURFACE('',#409,2.75E0);
#412=ORIENTED_EDGE('',*,*,#411,.T.);
#414=ORIENTED_EDGE('',*,*,#413,.T.);
#415=ORIENTED_EDGE('',*,*,#399,.F.);
#417=ORIENTED_EDGE('',*,*,#416,.F.);
#418=EDGE_LOOP('',(#412,#414,#415,#417));
#419=FACE_OUTER_BOUND('',#418,.F.);
#421=CARTESIAN_POINT('',(0.E0,5.1E0,0.E0));
#422=DIRECTION('',(0.E0,1.E0,0.E0));
#423=DIRECTION('',(1.E0,0.E0,0.E0));
#424=AXIS2_PLACEMENT_3D('',#421,#422,#423);
#425=PLANE('',#424);
#426=ORIENTED_EDGE('',*,*,#347,.F.);
#427=ORIENTED_EDGE('',*,*,#378,.F.);
#429=ORIENTED_EDGE('',*,*,#428,.F.);
#431=ORIENTED_EDGE('',*,*,#430,.F.);
#433=ORIENTED_EDGE('',*,*,#432,.F.);
#434=ORIENTED_EDGE('',*,*,#324,.F.);
#435=EDGE_LOOP('',(#426,#427,#429,#431,#433,#434));
#436=FACE_OUTER_BOUND('',#435,.F.);
#437=ORIENTED_EDGE('',*,*,#411,.F.);
#439=ORIENTED_EDGE('',*,*,#438,.F.);
#440=EDGE_LOOP('',(#437,#439));
#441=FACE_BOUND('',#440,.F.);
#443=CARTESIAN_POINT('',(0.E0,5.1E0,7.E0));
#444=DIRECTION('',(0.E0,-1.E0,0.E0));
#445=DIRECTION('',(1.E0,0.E0,0.E0));
#446=AXIS2_PLACEMENT_3D('',#443,#444,#445);
#447=CYLINDRICAL_SURFACE('',#446,2.75E0);
#448=ORIENTED_EDGE('',*,*,#438,.T.);
#449=ORIENTED_EDGE('',*,*,#416,.T.);
#450=ORIENTED_EDGE('',*,*,#401,.F.);
#451=ORIENTED_EDGE('',*,*,#413,.F.);
#452=EDGE_LOOP('',(#448,#449,#450,#451));
#453=FACE_OUTER_BOUND('',#452,.F.);
#455=CARTESIAN_POINT('',(6.5E0,4.1E0,1.5E1));
#456=DIRECTION('',(7.071067811865E-1,0.E0,7.071067811865E-1));
#457=DIRECTION('',(0.E0,-1.E0,0.E0));
#458=AXIS2_PLACEMENT_3D('',#455,#456,#457);
#459=PLANE('',#458);
#460=ORIENTED_EDGE('',*,*,#388,.T.);
#462=ORIENTED_EDGE('',*,*,#461,.F.);
#463=ORIENTED_EDGE('',*,*,#428,.T.);
#464=ORIENTED_EDGE('',*,*,#376,.T.);
#465=EDGE_LOOP('',(#460,#462,#463,#464));
#466=FACE_OUTER_BOUND('',#465,.F.);
#468=CARTESIAN_POINT('',(-7.5E0,0.E0,1.6E1));
#469=DIRECTION('',(0.E0,0.E0,1.E0));
#470=DIRECTION('',(1.E0,0.E0,0.E0));
#471=AXIS2_PLACEMENT_3D('',#468,#469,#470);
#472=PLANE('',#471);
#473=ORIENTED_EDGE('',*,*,#461,.T.);
#474=ORIENTED_EDGE('',*,*,#395,.F.);
#476=ORIENTED_EDGE('',*,*,#475,.F.);
#477=ORIENTED_EDGE('',*,*,#430,.T.);
#478=EDGE_LOOP('',(#473,#474,#476,#477));
#479=FACE_OUTER_BOUND('',#478,.F.);
#481=CARTESIAN_POINT('',(-6.5E0,4.1E0,1.5E1));
#482=DIRECTION('',(-7.071067811865E-1,0.E0,7.071067811865E-1));
#483=DIRECTION('',(0.E0,-1.E0,0.E0));
#484=AXIS2_PLACEMENT_3D('',#481,#482,#483);
#485=PLANE('',#484);
#486=ORIENTED_EDGE('',*,*,#393,.T.);
#487=ORIENTED_EDGE('',*,*,#326,.F.);
#488=ORIENTED_EDGE('',*,*,#432,.T.);
#489=ORIENTED_EDGE('',*,*,#475,.T.);
#490=EDGE_LOOP('',(#486,#487,#488,#489));
#491=FACE_OUTER_BOUND('',#490,.F.);
#493=CLOSED_SHELL('',(#301,#316,#336,#351,#364,#382,#405,#420,#442,#454,#467,
#480,#492));
#494=MANIFOLD_SOLID_BREP('',#493);
#495=FILL_AREA_STYLE_COLOUR('',#1);
#496=FILL_AREA_STYLE('',(#495));
#497=SURFACE_STYLE_FILL_AREA(#496);
#498=SURFACE_SIDE_STYLE('',(#497));
#499=SURFACE_STYLE_USAGE(.BOTH.,#498);
#500=PRESENTATION_STYLE_ASSIGNMENT((#499));
#3=STYLED_ITEM('',(#500),#494);
#502=DIMENSIONAL_EXPONENTS(0.E0,0.E0,0.E0,0.E0,0.E0,0.E0,0.E0);
#504=PLANE_ANGLE_MEASURE_WITH_UNIT(PLANE_ANGLE_MEASURE(1.745329251994E-2),#503);
#505=(CONVERSION_BASED_UNIT('DEGREE',#504)NAMED_UNIT(#502)PLANE_ANGLE_UNIT());
#507=UNCERTAINTY_MEASURE_WITH_UNIT(LENGTH_MEASURE(2.483929624179E-3),#501,
'distance_accuracy_value',
'Maximum model space distance between geometric entities at asserted connectivities');
#510=MECHANICAL_DESIGN_GEOMETRIC_PRESENTATION_REPRESENTATION('',(#11,#18,#25,
#32,#40,#47,#54,#61,#68,#75,#82,#90,#97,#104,#111,#119,#127,#134,#141,#148,#155,
#163,#171,#178,#185,#192,#199,#206,#213,#220,#227,#234,#241,#3),#508);
#511=APPLICATION_CONTEXT('automotive_design');
#512=APPLICATION_PROTOCOL_DEFINITION('draft international standard',
'automotive_design',1998,#511);
#513=PRODUCT_DEFINITION_CONTEXT('part definition',#511,'design');
#514=PRODUCT_CONTEXT('',#511,'mechanical');
#515=PRODUCT('KM-9','KM-9','NOT SPECIFIED',(#514));
#516=PRODUCT_DEFINITION_FORMATION_WITH_SPECIFIED_SOURCE('1','LAST_VERSION',#515,
.MADE.);
#520=PRODUCT_TYPE('part','',(#515));
#1=COLOUR_RGB('',0.E0,7.8E-1,0.E0);
#2=COLOUR_RGB('',8.784E-1,9.49E-1,1.E0);
#37=CIRCLE('',#36,2.E0);
#87=CIRCLE('',#86,2.E0);
#116=CIRCLE('',#115,2.75E0);
#124=CIRCLE('',#123,2.75E0);
#160=CIRCLE('',#159,2.75E0);
#168=CIRCLE('',#167,2.75E0);
#291=EDGE_CURVE('',#248,#249,#7,.T.);
#293=EDGE_CURVE('',#249,#244,#15,.T.);
#295=EDGE_CURVE('',#244,#245,#22,.T.);
#297=EDGE_CURVE('',#245,#248,#29,.T.);
#301=ADVANCED_FACE('',(#300),#290,.F.);
#308=EDGE_CURVE('',#248,#251,#58,.T.);
#310=EDGE_CURVE('',#251,#253,#138,.T.);
#312=EDGE_CURVE('',#249,#253,#94,.T.);
#316=ADVANCED_FACE('',(#315),#306,.F.);
#322=EDGE_CURVE('',#280,#281,#37,.T.);
#324=EDGE_CURVE('',#280,#275,#210,.T.);
#326=EDGE_CURVE('',#275,#273,#44,.T.);
#328=EDGE_CURVE('',#273,#251,#51,.T.);
#332=EDGE_CURVE('',#245,#281,#65,.T.);
#336=ADVANCED_FACE('',(#335),#321,.T.);
#343=EDGE_CURVE('',#283,#281,#72,.T.);
#345=EDGE_CURVE('',#283,#285,#87,.T.);
#347=EDGE_CURVE('',#285,#280,#175,.T.);
#351=ADVANCED_FACE('',(#350),#341,.T.);
#360=EDGE_CURVE('',#244,#283,#79,.T.);
#364=ADVANCED_FACE('',(#363),#356,.T.);
#374=EDGE_CURVE('',#264,#253,#101,.T.);
#376=EDGE_CURVE('',#269,#264,#108,.T.);
#378=EDGE_CURVE('',#269,#285,#182,.T.);
#382=ADVANCED_FACE('',(#381),#369,.T.);
#388=EDGE_CURVE('',#264,#265,#131,.T.);
#393=EDGE_CURVE('',#272,#273,#145,.T.);
#395=EDGE_CURVE('',#272,#265,#231,.T.);
#399=EDGE_CURVE('',#260,#261,#116,.T.);
#401=EDGE_CURVE('',#261,#260,#124,.T.);
#405=ADVANCED_FACE('',(#398,#404),#387,.F.);
#411=EDGE_CURVE('',#256,#257,#160,.T.);
#413=EDGE_CURVE('',#257,#261,#217,.T.);
#416=EDGE_CURVE('',#256,#260,#152,.T.);
#420=ADVANCED_FACE('',(#419),#410,.F.);
#428=EDGE_CURVE('',#267,#269,#189,.T.);
#430=EDGE_CURVE('',#277,#267,#196,.T.);
#432=EDGE_CURVE('',#275,#277,#203,.T.);
#438=EDGE_CURVE('',#257,#256,#168,.T.);
#442=ADVANCED_FACE('',(#436,#441),#425,.T.);
#454=ADVANCED_FACE('',(#453),#447,.F.);
#461=EDGE_CURVE('',#267,#265,#224,.T.);
#467=ADVANCED_FACE('',(#466),#459,.T.);
#475=EDGE_CURVE('',#277,#272,#238,.T.);
#480=ADVANCED_FACE('',(#479),#472,.T.);
#492=ADVANCED_FACE('',(#491),#485,.T.);
#501=(LENGTH_UNIT()NAMED_UNIT(*)SI_UNIT(.MILLI.,.METRE.));
#503=(NAMED_UNIT(*)PLANE_ANGLE_UNIT()SI_UNIT($,.RADIAN.));
#506=(NAMED_UNIT(*)SI_UNIT($,.STERADIAN.)SOLID_ANGLE_UNIT());
#508=(GEOMETRIC_REPRESENTATION_CONTEXT(3)GLOBAL_UNCERTAINTY_ASSIGNED_CONTEXT((
#507))GLOBAL_UNIT_ASSIGNED_CONTEXT((#501,#505,#506))REPRESENTATION_CONTEXT
('ID1','3'));
#509=ADVANCED_BREP_SHAPE_REPRESENTATION('',(#494),#508);
#517=PRODUCT_DEFINITION('part definition','',#516,#513);
#518=PRODUCT_DEFINITION_SHAPE('','SHAPE FOR KM-9.',#517);
#519=SHAPE_DEFINITION_REPRESENTATION(#518,#509);
ENDSEC;
END-ISO-10303-21;
