ISO-10303-21;
HEADER;
FILE_DESCRIPTION (( 'STEP AP214' ),
    '1' );
FILE_NAME ('LLR-D04MA-Nxx-400.STEP',
    '2018-11-16T19:54:00',
    ( '' ),
    ( '' ),
    'SwSTEP 2.0',
    'SolidWorks 2018',
    '' );
FILE_SCHEMA (( 'AUTOMOTIVE_DESIGN' ));
ENDSEC;

DATA;
#1 = MECHANICAL_DESIGN_GEOMETRIC_PRESENTATION_REPRESENTATION (  '', ( #169 ), #109 ) ;
#2 = CARTESIAN_POINT ( 'NONE',  ( 0.06895269678623731913, -1.705621350172372264, -0.0002901793439973640153 ) ) ;
#3 =( GEOMETRIC_REPRESENTATION_CONTEXT ( 3 ) GLOBAL_UNCERTAINTY_ASSIGNED_CONTEXT ( ( #245 ) ) GLOBAL_UNIT_ASSIGNED_CONTEXT ( ( #92, #105, #240 ) ) REPRESENTATION_CONTEXT ( 'NONE', 'WORKASPACE' ) );
#4 = VERTEX_POINT ( 'NONE', #211 ) ;
#5 = CARTESIAN_POINT ( 'NONE',  ( 0.06557241866184762569, -1.717125002392053679, -0.02149911319320361655 ) ) ;
#6 = CIRCLE ( 'NONE', #17, 0.06889763779527559306 ) ;
#7 = CARTESIAN_POINT ( 'NONE',  ( 0.04907719753522496453, -1.747535200429877866, -0.04855825893491857309 ) ) ;
#8 = ADVANCED_FACE ( 'NONE', ( #143, #244 ), #168, .F. ) ;
#9 = CARTESIAN_POINT ( 'NONE',  ( -0.05093341278312929488, -1.687489388493536691, 0.04670412119534182033 ) ) ;
#10 = CARTESIAN_POINT ( 'NONE',  ( 0.01082718268133127382, -1.734112622768402501, -0.06815762745357942243 ) ) ;
#11 = ADVANCED_FACE ( 'NONE', ( #186, #212 ), #214, .T. ) ;
#12 = DIRECTION ( 'NONE',  ( 0.0000000000000000000, 0.0000000000000000000, 1.000000000000000000 ) ) ;
#13 = SURFACE_SIDE_STYLE ('',( #129 ) ) ;
#14 = VERTEX_POINT ( 'NONE', #71 ) ;
#15 =( CONVERSION_BASED_UNIT ( 'INCH', #22 ) LENGTH_UNIT ( ) NAMED_UNIT ( #179 ) );
#16 = FILL_AREA_STYLE ('',( #140 ) ) ;
#17 = AXIS2_PLACEMENT_3D ( 'NONE', #108, #110, #12 ) ;
#18 = CARTESIAN_POINT ( 'NONE',  ( 0.05496870968159796311, -1.740602124346230406, 0.04172433991686486793 ) ) ;
#19 = EDGE_LOOP ( 'NONE', ( #96 ) ) ;
#20 = EDGE_CURVE ( 'NONE', #197, #197, #49, .T. ) ;
#21 = CARTESIAN_POINT ( 'NONE',  ( 0.04541355943175415244, -1.749791144100771634, 0.05188226761862883146 ) ) ;
#22 = LENGTH_MEASURE_WITH_UNIT ( LENGTH_MEASURE( 0.02539999999999999897 ), #167 );
#23 = CARTESIAN_POINT ( 'NONE',  ( -0.06165441458948939940, -1.698558809302101569, 0.03107650224527703717 ) ) ;
#24 = CARTESIAN_POINT ( 'NONE',  ( -0.003594208474698989530, -1.717608821655045581, 0.06889763779527559306 ) ) ;
#25 = CARTESIAN_POINT ( 'NONE',  ( -0.04753116444320266282, -1.686619525398959540, -0.04994688844204178690 ) ) ;
#26 = CARTESIAN_POINT ( 'NONE',  ( -0.04290897382754430001, -1.686145001980654090, 0.05397155137497597344 ) ) ;
#27 = EDGE_LOOP ( 'NONE', ( #204 ) ) ;
#28 = CARTESIAN_POINT ( 'NONE',  ( 0.03652865469780387786, -1.751476398513876154, -0.05848061002598623631 ) ) ;
#29 = DIRECTION ( 'NONE',  ( 0.0000000000000000000, 1.000000000000000000, 0.0000000000000000000 ) ) ;
#30 = CARTESIAN_POINT ( 'NONE',  ( 0.06966988095049482521, -1.702920800802341983, 0.06972754599860793434 ) ) ;
#31 = PLANE ( 'NONE',  #156 ) ;
#32 = MECHANICAL_DESIGN_GEOMETRIC_PRESENTATION_REPRESENTATION (  '', ( #190 ), #206 ) ;
#33 = CARTESIAN_POINT ( 'NONE',  ( 0.03146591821973938885, -1.849648157695845452, -0.07025030429678133514 ) ) ;
#34 = CARTESIAN_POINT ( 'NONE',  ( 0.0000000000000000000, 0.6889763779527560139, 0.0000000000000000000 ) ) ;
#35 = EDGE_CURVE ( 'NONE', #84, #84, #70, .T. ) ;
#36 =( NAMED_UNIT ( * ) PLANE_ANGLE_UNIT ( ) SI_UNIT ( $, .RADIAN. ) );
#37 = SURFACE_STYLE_FILL_AREA ( #16 ) ;
#38 = SURFACE_SIDE_STYLE ('',( #37 ) ) ;
#39 = CARTESIAN_POINT ( 'NONE',  ( 0.04121812101260274863, -1.751289187248818324, 0.05527411305215965132 ) ) ;
#40 = FACE_OUTER_BOUND ( 'NONE', #111, .T. ) ;
#41 = CARTESIAN_POINT ( 'NONE',  ( 0.02705362955887400528, -1.748201134718711192, 0.06352596427631609921 ) ) ;
#42 = CARTESIAN_POINT ( 'NONE',  ( -0.04121879728129970721, -1.686309595994256005, -0.05527558759368218083 ) ) ;
#43 = CARTESIAN_POINT ( 'NONE',  ( 0.02271321644756318231, -1.745331002508196949, -0.06522969018843849387 ) ) ;
#44 = ORIENTED_EDGE ( 'NONE', *, *, #20, .F. ) ;
#45 = CARTESIAN_POINT ( 'NONE',  ( 0.06875340756235266693, -1.706352246797593120, 0.005246670059331636111 ) ) ;
#46 = CARTESIAN_POINT ( 'NONE',  ( -0.02981522399301277798, -1.690984141632238646, 0.06231374017463597870 ) ) ;
#47 = CARTESIAN_POINT ( 'NONE',  ( -0.05122631925144985332, -1.688069802802459662, -0.04614940383490430398 ) ) ;
#48 = DIRECTION ( 'NONE',  ( 0.0000000000000000000, 0.0000000000000000000, -1.000000000000000000 ) ) ;
#49 = CIRCLE ( 'NONE', #238, 0.06481020691644473475 ) ;
#50 = EDGE_CURVE ( 'NONE', #4, #4, #193, .T. ) ;
#51 = CARTESIAN_POINT ( 'NONE',  ( 0.03146591821973938885, -1.849648157695845452, 0.06972754599860794822 ) ) ;
#52 = DIRECTION ( 'NONE',  ( -0.0000000000000000000, -1.000000000000000000, -0.0000000000000000000 ) ) ;
#53 = FACE_OUTER_BOUND ( 'NONE', #27, .T. ) ;
#54 = DIRECTION ( 'NONE',  ( 0.0000000000000000000, 0.0000000000000000000, 1.000000000000000000 ) ) ;
#55 = ORIENTED_EDGE ( 'NONE', *, *, #20, .T. ) ;
#56 = ORIENTED_EDGE ( 'NONE', *, *, #119, .F. ) ;
#57 = EDGE_LOOP ( 'NONE', ( #44 ) ) ;
#58 = DIRECTION ( 'NONE',  ( 0.0000000000000000000, 1.000000000000000000, 0.0000000000000000000 ) ) ;
#59 = CARTESIAN_POINT ( 'NONE',  ( 0.0000000000000000000, -1.751968503937007871, 0.0000000000000000000 ) ) ;
#60 = CARTESIAN_POINT ( 'NONE',  ( -0.03857405715412248748, -1.686900008279602181, 0.05715024503381454374 ) ) ;
#61 = CARTESIAN_POINT ( 'NONE',  ( -0.04547484190496175332, -1.686221869293066611, -0.05183067225941075107 ) ) ;
#62 = CARTESIAN_POINT ( 'NONE',  ( -0.06853225779981560184, -1.712245518272302203, 0.008656461063401101053 ) ) ;
#63 = ORIENTED_EDGE ( 'NONE', *, *, #65, .T. ) ;
#64 = ADVANCED_FACE ( 'NONE', ( #146 ), #139, .T. ) ;
#65 = EDGE_CURVE ( 'NONE', #14, #14, #152, .T. ) ;
#66 = CARTESIAN_POINT ( 'NONE',  ( 0.03886748893353108442, -1.751572843868287377, -0.05695481098783063134 ) ) ;
#67 = CARTESIAN_POINT ( 'NONE',  ( 0.0000000000000000000, 0.6889763779527560139, 0.0000000000000000000 ) ) ;
#68 = CARTESIAN_POINT ( 'NONE',  ( -0.06980627524596243194, -1.715542262088699088, 0.06972754599860796210 ) ) ;
#69 = DIMENSIONAL_EXPONENTS ( 1.000000000000000000, 0.0000000000000000000, 0.0000000000000000000, 0.0000000000000000000, 0.0000000000000000000, 0.0000000000000000000, 0.0000000000000000000 ) ;
#70 = B_SPLINE_CURVE_WITH_KNOTS ( 'NONE', 3,
 ( #195, #97, #79, #148, #98, #41, #233, #147, #39, #21, #216, #99, #18, #191, #77, #115, #198, #117, #200, #135, #45, #2, #86, #103, #136, #85, #5, #223, #236, #118, #178, #7, #116, #66, #28, #221, #150, #43, #239, #10, #155, #158, #83, #100, #132, #120, #174, #220, #42, #61, #25, #47, #219, #102, #121, #175, #203, #177, #87, #234, #62, #202, #130, #23, #237, #172, #9, #218, #26, #60, #157, #46, #196, #131, #82, #235, #24, #153 ),
 .UNSPECIFIED., .T., .F.,
 ( 4, 2, 2, 2, 2, 2, 2, 2, 2, 2, 2, 2, 2, 2, 2, 2, 2, 2, 2, 2, 2, 2, 2, 2, 2, 2, 2, 2, 2, 2, 2, 2, 2, 2, 2, 2, 2, 2, 4 ),
 ( 0.0000000000000000000, 0.0004156188278767477097, 0.0008312376557534954195, 0.001246856483630243238, 0.001454665897568615520, 0.001662475311506987803, 0.002078094139383743211, 0.002493712967260499052, 0.002909331795137254460, 0.003117141209075632163, 0.003324950623014009867, 0.003532760036952387571, 0.003740569450890764841, 0.004156188278767508973, 0.004571807106644252237, 0.004987425934520997237, 0.005403044762397741368, 0.005610854176336110832, 0.005818663590274481164, 0.006234282418151221826, 0.006649901246027961621, 0.007481138901781442078, 0.007896757729658190547, 0.008104567143596558276, 0.008312376557534927740, 0.008520185971473297204, 0.008727995385411666668, 0.009143614213288403861, 0.009559233041165141054, 0.009974851869041878247, 0.01039047069691861544, 0.01080608952479535437, 0.01122170835267208983, 0.01163732718054883049, 0.01184513659448719995, 0.01205294600842556768, 0.01246856483630229794, 0.01288418366417902819, 0.01329980249205575844 ),
 .UNSPECIFIED. ) ;
#71 = CARTESIAN_POINT ( 'NONE',  ( 0.0000000000000000000, 0.6889763779527560139, -0.07874015748031495954 ) ) ;
#72 =( NAMED_UNIT ( * ) SI_UNIT ( $, .STERADIAN. ) SOLID_ANGLE_UNIT ( ) );
#73 = DIRECTION ( 'NONE',  ( 0.0000000000000000000, 1.000000000000000000, 0.0000000000000000000 ) ) ;
#74 = EDGE_LOOP ( 'NONE', ( #56 ) ) ;
#75 = ADVANCED_BREP_SHAPE_REPRESENTATION ( 'LLR-D04MA-Nxx-400', ( #122, #230 ), #3 ) ;
#76 = EDGE_LOOP ( 'NONE', ( #246 ) ) ;
#77 = CARTESIAN_POINT ( 'NONE',  ( 0.06119643253030437879, -1.728791511120943758, 0.03188252269110931209 ) ) ;
#78 = DIRECTION ( 'NONE',  ( 0.0000000000000000000, 0.0000000000000000000, 1.000000000000000000 ) ) ;
#79 = CARTESIAN_POINT ( 'NONE',  ( 0.007187148220771896398, -1.730114572223939051, 0.06862581371358908444 ) ) ;
#80 = COLOUR_RGB ( '',0.7921568627450980005, 0.8196078431372548767, 0.9333333333333333481 ) ;
#81 = UNCERTAINTY_MEASURE_WITH_UNIT (LENGTH_MEASURE( 1.000000000000000082E-05 ), #15, 'distance_accuracy_value', 'NONE');
#82 = CARTESIAN_POINT ( 'NONE',  ( -0.01429536466476644466, -1.705379772974553454, 0.06749722480458422713 ) ) ;
#83 = CARTESIAN_POINT ( 'NONE',  ( -0.01057812217941650479, -1.709070994313771408, -0.06853622683765879520 ) ) ;
#84 = VERTEX_POINT ( 'NONE', #184 ) ;
#85 = CARTESIAN_POINT ( 'NONE',  ( 0.06675021391523146275, -1.713329220335823688, -0.01768707914967101655 ) ) ;
#86 = CARTESIAN_POINT ( 'NONE',  ( 0.06887982342908681443, -1.705893612054380837, -0.003086531693248128604 ) ) ;
#87 = CARTESIAN_POINT ( 'NONE',  ( -0.06867770226600722339, -1.712667749314271015, -0.007761377337322045156 ) ) ;
#88 =( NAMED_UNIT ( * ) PLANE_ANGLE_UNIT ( ) SI_UNIT ( $, .RADIAN. ) );
#89 = CARTESIAN_POINT ( 'NONE',  ( 0.06966988095049482521, -1.702920800802341983, -0.07025030429678134902 ) ) ;
#90 = ADVANCED_FACE ( 'NONE', ( #40, #242 ), #210, .T. ) ;
#91 = UNCERTAINTY_MEASURE_WITH_UNIT (LENGTH_MEASURE( 1.000000000000000082E-05 ), #107, 'distance_accuracy_value', 'NONE');
#92 =( CONVERSION_BASED_UNIT ( 'INCH', #247 ) LENGTH_UNIT ( ) NAMED_UNIT ( #207 ) );
#93 = PRODUCT_CONTEXT ( 'NONE', #229, 'mechanical' ) ;
#94 = FACE_BOUND ( 'NONE', #57, .T. ) ;
#95 = ORIENTED_EDGE ( 'NONE', *, *, #50, .T. ) ;
#96 = ORIENTED_EDGE ( 'NONE', *, *, #35, .T. ) ;
#97 = CARTESIAN_POINT ( 'NONE',  ( 0.003594208474698960040, -1.725978465050544974, 0.06889763779527560694 ) ) ;
#98 = CARTESIAN_POINT ( 'NONE',  ( 0.01849423153696565930, -1.741756842841738928, 0.06652375823269213173 ) ) ;
#99 = CARTESIAN_POINT ( 'NONE',  ( 0.05235324678651880753, -1.744337549052862757, 0.04504382878983614197 ) ) ;
#100 = CARTESIAN_POINT ( 'NONE',  ( -0.02199101286473099590, -1.697548035970292579, -0.06541281593087396040 ) ) ;
#101 = CARTESIAN_POINT ( 'NONE',  ( 0.0000000000000000000, 0.6304888528450318663, 0.0000000000000000000 ) ) ;
#102 = CARTESIAN_POINT ( 'NONE',  ( -0.05745521863344450753, -1.692795615132071996, -0.03834463653534259109 ) ) ;
#103 = CARTESIAN_POINT ( 'NONE',  ( 0.06843696534774162954, -1.707499946915970179, -0.008386806752728280870 ) ) ;
#104 = AXIS2_PLACEMENT_3D ( 'NONE', #101, #243, #48 ) ;
#105 =( NAMED_UNIT ( * ) PLANE_ANGLE_UNIT ( ) SI_UNIT ( $, .RADIAN. ) );
#106 = ORIENTED_EDGE ( 'NONE', *, *, #50, .F. ) ;
#107 =( CONVERSION_BASED_UNIT ( 'INCH', #133 ) LENGTH_UNIT ( ) NAMED_UNIT ( #69 ) );
#108 = CARTESIAN_POINT ( 'NONE',  ( 0.0000000000000000000, -0.6889763779527560139, 0.0000000000000000000 ) ) ;
#109 =( GEOMETRIC_REPRESENTATION_CONTEXT ( 3 ) GLOBAL_UNCERTAINTY_ASSIGNED_CONTEXT ( ( #81 ) ) GLOBAL_UNIT_ASSIGNED_CONTEXT ( ( #15, #36, #213 ) ) REPRESENTATION_CONTEXT ( 'NONE', 'WORKASPACE' ) );
#110 = DIRECTION ( 'NONE',  ( -0.0000000000000000000, -1.000000000000000000, -0.0000000000000000000 ) ) ;
#111 = EDGE_LOOP ( 'NONE', ( #95 ) ) ;
#112 = APPLICATION_CONTEXT ( 'automotive_design' ) ;
#113 = EDGE_LOOP ( 'NONE', ( #199 ) ) ;
#114 = AXIS2_PLACEMENT_3D ( 'NONE', #67, #205, #241 ) ;
#115 = CARTESIAN_POINT ( 'NONE',  ( 0.06434797714764156629, -1.720735194500079057, 0.02491658974642793969 ) ) ;
#116 = CARTESIAN_POINT ( 'NONE',  ( 0.04552714143299530641, -1.750299885901710040, -0.05200725597706325892 ) ) ;
#117 = CARTESIAN_POINT ( 'NONE',  ( 0.06728606826009859987, -1.711511896920321352, 0.01497288904236841918 ) ) ;
#118 = CARTESIAN_POINT ( 'NONE',  ( 0.05718024490588990288, -1.736988983602935299, -0.03862561438225188548 ) ) ;
#119 = EDGE_CURVE ( 'NONE', #209, #209, #6, .T. ) ;
#120 = CARTESIAN_POINT ( 'NONE',  ( -0.03232136995277598568, -1.689708185083508507, -0.06089162763899556158 ) ) ;
#121 = CARTESIAN_POINT ( 'NONE',  ( -0.05980979822076550045, -1.695863063385989244, -0.03449468191067740080 ) ) ;
#122 = MANIFOLD_SOLID_BREP ( 'Combine1', #176 ) ;
#123 = FILL_AREA_STYLE ('',( #138 ) ) ;
#124 = SURFACE_STYLE_USAGE ( .BOTH. , #13 ) ;
#125 = DIRECTION ( 'NONE',  ( 0.0000000000000000000, 0.0000000000000000000, -1.000000000000000000 ) ) ;
#126 = FACE_OUTER_BOUND ( 'NONE', #76, .T. ) ;
#127 = AXIS2_PLACEMENT_3D ( 'NONE', #232, #58, #194 ) ;
#128 = PRESENTATION_LAYER_ASSIGNMENT (  '', '', ( #190 ) ) ;
#129 = SURFACE_STYLE_FILL_AREA ( #123 ) ;
#130 = CARTESIAN_POINT ( 'NONE',  ( -0.06516414990468423485, -1.704707953787112373, 0.02281774303854777058 ) ) ;
#131 = CARTESIAN_POINT ( 'NONE',  ( -0.01795199104062126030, -1.701451560464312340, 0.06664260032744528939 ) ) ;
#132 = CARTESIAN_POINT ( 'NONE',  ( -0.02595361041185903148, -1.693944813554996820, -0.06399688831406918910 ) ) ;
#133 = LENGTH_MEASURE_WITH_UNIT ( LENGTH_MEASURE( 0.02539999999999999897 ), #141 );
#134 = ADVANCED_FACE ( 'NONE', ( #53 ), #182, .F. ) ;
#135 = CARTESIAN_POINT ( 'NONE',  ( 0.06849124884256939383, -1.707313995860246347, 0.007869544785863775982 ) ) ;
#136 = CARTESIAN_POINT ( 'NONE',  ( 0.06807701001878956049, -1.708790421779170510, -0.01085311171381789057 ) ) ;
#137 = AXIS2_PLACEMENT_3D ( 'NONE', #225, #52, #125 ) ;
#138 = FILL_AREA_STYLE_COLOUR ( '', #189 ) ;
#139 = TOROIDAL_SURFACE ( 'NONE', #104, -0.0009682171574996996464, 0.08802040483250649083 ) ;
#140 = FILL_AREA_STYLE_COLOUR ( '', #80 ) ;
#141 =( LENGTH_UNIT ( ) NAMED_UNIT ( * ) SI_UNIT ( $, .METRE. ) );
#142 = PRODUCT_DEFINITION ( 'UNKNOWN', '', #154, #165 ) ;
#143 = FACE_OUTER_BOUND ( 'NONE', #222, .T. ) ;
#144 = PRODUCT ( 'LLR-D04MA-Nxx-400', 'LLR-D04MA-Nxx-400', '', ( #93 ) ) ;
#145 = SURFACE_STYLE_USAGE ( .BOTH. , #38 ) ;
#146 = FACE_OUTER_BOUND ( 'NONE', #159, .T. ) ;
#147 = CARTESIAN_POINT ( 'NONE',  ( 0.03890855868233304704, -1.751572721981732750, 0.05692742692006915600 ) ) ;
#148 = CARTESIAN_POINT ( 'NONE',  ( 0.01464758704606704438, -1.737991406632337643, 0.06742852216330615100 ) ) ;
#149 = DIRECTION ( 'NONE',  ( 0.0000000000000000000, 1.000000000000000000, 0.0000000000000000000 ) ) ;
#150 = CARTESIAN_POINT ( 'NONE',  ( 0.02945297479884104522, -1.749264296920251871, -0.06233286706621148782 ) ) ;
#151 = SHAPE_DEFINITION_REPRESENTATION ( #173, #75 ) ;
#152 = CIRCLE ( 'NONE', #114, 0.07874015748031495954 ) ;
#153 = CARTESIAN_POINT ( 'NONE',  ( -9.150623650652756429E-17, -1.721793643352795167, 0.06889763779527560694 ) ) ;
#154 = PRODUCT_DEFINITION_FORMATION_WITH_SPECIFIED_SOURCE ( 'ANY', '', #144, .NOT_KNOWN. ) ;
#155 = CARTESIAN_POINT ( 'NONE',  ( 0.007180721307727076612, -1.730058432771631294, -0.06861695334142818570 ) ) ;
#156 = AXIS2_PLACEMENT_3D ( 'NONE', #34, #73, #180 ) ;
#157 = CARTESIAN_POINT ( 'NONE',  ( -0.03633678393123603717, -1.687700743696651351, 0.05859000727886923277 ) ) ;
#158 = CARTESIAN_POINT ( 'NONE',  ( -0.003606541856810156245, -1.717700276728022724, -0.06917901092066756907 ) ) ;
#159 = EDGE_LOOP ( 'NONE', ( #55 ) ) ;
#160 = CARTESIAN_POINT ( 'NONE',  ( -0.02819092120335842111, -1.606067323556424231, -0.07025030429678133514 ) ) ;
#161 = DIRECTION ( 'NONE',  ( 0.0000000000000000000, 0.0000000000000000000, -1.000000000000000000 ) ) ;
#162 = CARTESIAN_POINT ( 'NONE',  ( 0.0000000000000000000, 0.6889763779527560139, 0.06481020691644473475 ) ) ;
#163 = CARTESIAN_POINT ( 'NONE',  ( 0.0000000000000000000, 0.0000000000000000000, 0.0000000000000000000 ) ) ;
#164 = CARTESIAN_POINT ( 'NONE',  ( -0.06980627524596243194, -1.715542262088699088, -0.07025030429678132127 ) ) ;
#165 = PRODUCT_DEFINITION_CONTEXT ( 'detailed design', #112, 'design' ) ;
#166 = PRODUCT_RELATED_PRODUCT_CATEGORY ( 'part', '', ( #144 ) ) ;
#167 =( LENGTH_UNIT ( ) NAMED_UNIT ( * ) SI_UNIT ( $, .METRE. ) );
#168 = PLANE ( 'NONE',  #127 ) ;
#169 = STYLED_ITEM ( 'NONE', ( #181 ), #75 ) ;
#170 = DIRECTION ( 'NONE',  ( 0.0000000000000000000, 1.000000000000000000, 0.0000000000000000000 ) ) ;
#171 = AXIS2_PLACEMENT_3D ( 'NONE', #59, #149, #215 ) ;
#172 = CARTESIAN_POINT ( 'NONE',  ( -0.05420171954412585785, -1.689831863413591151, 0.04279432888104971883 ) ) ;
#173 = PRODUCT_DEFINITION_SHAPE ( 'NONE', 'NONE',  #142 ) ;
#174 = CARTESIAN_POINT ( 'NONE',  ( -0.03453178767198623184, -1.688496686935681002, -0.05967642065000283019 ) ) ;
#175 = CARTESIAN_POINT ( 'NONE',  ( -0.06378517435192153362, -1.702067244246865174, -0.02643003171058383796 ) ) ;
#176 = CLOSED_SHELL ( 'NONE', ( #90, #8, #224, #11, #134, #64 ) ) ;
#177 = CARTESIAN_POINT ( 'NONE',  ( -0.06784065492808874498, -1.710558264436780274, -0.01294138045530683276 ) ) ;
#178 = CARTESIAN_POINT ( 'NONE',  ( 0.05488719913733471067, -1.740882044758023550, -0.04187924545118561909 ) ) ;
#179 = DIMENSIONAL_EXPONENTS ( 1.000000000000000000, 0.0000000000000000000, 0.0000000000000000000, 0.0000000000000000000, 0.0000000000000000000, 0.0000000000000000000, 0.0000000000000000000 ) ;
#180 = DIRECTION ( 'NONE',  ( 0.0000000000000000000, -0.0000000000000000000, 1.000000000000000000 ) ) ;
#181 = PRESENTATION_STYLE_ASSIGNMENT (( #145 ) ) ;
#182 = B_SPLINE_SURFACE_WITH_KNOTS ( 'NONE', 3, 1, ( 
 ( #89, #30 ),
 ( #33, #51 ),
 ( #160, #183 ),
 ( #164, #68 ) ),
 .UNSPECIFIED., .F., .F., .F.,
 ( 4, 4 ),
 ( 2, 2 ),
 ( 0.02949988657524741861, 0.8997144480822680812 ),
 ( 0.0000000000000000000, 1.000000000000000000 ),
 .UNSPECIFIED. ) ;
#183 = CARTESIAN_POINT ( 'NONE',  ( -0.02819092120335842111, -1.606067323556424231, 0.06972754599860794822 ) ) ;
#184 = CARTESIAN_POINT ( 'NONE',  ( -8.963876229210863994E-17, -1.721793643352795167, 0.06889763779527557919 ) ) ;
#185 =( LENGTH_UNIT ( ) NAMED_UNIT ( * ) SI_UNIT ( $, .METRE. ) );
#186 = FACE_OUTER_BOUND ( 'NONE', #113, .T. ) ;
#187 = APPLICATION_PROTOCOL_DEFINITION ( 'draft international standard', 'automotive_design', 1998, #229 ) ;
#188 = DIRECTION ( 'NONE',  ( 1.000000000000000000, 0.0000000000000000000, 0.0000000000000000000 ) ) ;
#189 = COLOUR_RGB ( '',0.7921568627450980005, 0.8196078431372548767, 0.9333333333333333481 ) ;
#190 = STYLED_ITEM ( 'NONE', ( #228 ), #122 ) ;
#191 = CARTESIAN_POINT ( 'NONE',  ( 0.05937614495895661426, -1.732882235107122471, 0.03517034255407318344 ) ) ;
#192 = CARTESIAN_POINT ( 'NONE',  ( 0.0000000000000000000, 0.6889763779527560139, 0.0000000000000000000 ) ) ;
#193 = CIRCLE ( 'NONE', #217, 0.07874015748031495954 ) ;
#194 = DIRECTION ( 'NONE',  ( 0.0000000000000000000, -0.0000000000000000000, 1.000000000000000000 ) ) ;
#195 = CARTESIAN_POINT ( 'NONE',  ( -9.150623650652756429E-17, -1.721793643352795167, 0.06889763779527560694 ) ) ;
#196 = CARTESIAN_POINT ( 'NONE',  ( -0.02568715192037921910, -1.694279080839735441, 0.06405997492151800643 ) ) ;
#197 = VERTEX_POINT ( 'NONE', #162 ) ;
#198 = CARTESIAN_POINT ( 'NONE',  ( 0.06567093925411587874, -1.716760209493187528, 0.02128576540522228444 ) ) ;
#199 = ORIENTED_EDGE ( 'NONE', *, *, #119, .T. ) ;
#200 = CARTESIAN_POINT ( 'NONE',  ( 0.06775222859795192176, -1.709913763717710644, 0.01275211445848654576 ) ) ;
#201 = PRESENTATION_LAYER_ASSIGNMENT (  '', '', ( #169 ) ) ;
#202 = CARTESIAN_POINT ( 'NONE',  ( -0.06657926990094710507, -1.707757803870458391, 0.01840666989814849358 ) ) ;
#203 = CARTESIAN_POINT ( 'NONE',  ( -0.06539684270838705404, -1.705261845241245355, -0.02220555680309525479 ) ) ;
#204 = ORIENTED_EDGE ( 'NONE', *, *, #35, .F. ) ;
#205 = DIRECTION ( 'NONE',  ( -0.0000000000000000000, -1.000000000000000000, -0.0000000000000000000 ) ) ;
#206 =( GEOMETRIC_REPRESENTATION_CONTEXT ( 3 ) GLOBAL_UNCERTAINTY_ASSIGNED_CONTEXT ( ( #91 ) ) GLOBAL_UNIT_ASSIGNED_CONTEXT ( ( #107, #88, #72 ) ) REPRESENTATION_CONTEXT ( 'NONE', 'WORKASPACE' ) );
#207 = DIMENSIONAL_EXPONENTS ( 1.000000000000000000, 0.0000000000000000000, 0.0000000000000000000, 0.0000000000000000000, 0.0000000000000000000, 0.0000000000000000000, 0.0000000000000000000 ) ;
#208 = CARTESIAN_POINT ( 'NONE',  ( 0.0000000000000000000, -0.6889763779527560139, 0.0000000000000000000 ) ) ;
#209 = VERTEX_POINT ( 'NONE', #226 ) ;
#210 = CYLINDRICAL_SURFACE ( 'NONE', #137, 0.07874015748031495954 ) ;
#211 = CARTESIAN_POINT ( 'NONE',  ( 0.0000000000000000000, -0.6889763779527560139, -0.07874015748031495954 ) ) ;
#212 = FACE_OUTER_BOUND ( 'NONE', #19, .T. ) ;
#213 =( NAMED_UNIT ( * ) SI_UNIT ( $, .STERADIAN. ) SOLID_ANGLE_UNIT ( ) );
#214 = CYLINDRICAL_SURFACE ( 'NONE', #171, 0.06889763779527559306 ) ;
#215 = DIRECTION ( 'NONE',  ( 0.0000000000000000000, 0.0000000000000000000, 1.000000000000000000 ) ) ;
#216 = CARTESIAN_POINT ( 'NONE',  ( 0.04730299446297957233, -1.748602060420110016, 0.05015019766109224397 ) ) ;
#217 = AXIS2_PLACEMENT_3D ( 'NONE', #208, #29, #161 ) ;
#218 = CARTESIAN_POINT ( 'NONE',  ( -0.04507027550428466950, -1.686192972066783202, 0.05217955063898184476 ) ) ;
#219 = CARTESIAN_POINT ( 'NONE',  ( -0.05289886191127989024, -1.689112769323583008, -0.04421229584209794561 ) ) ;
#220 = CARTESIAN_POINT ( 'NONE',  ( -0.03895494148857007316, -1.686799248906082127, -0.05688789040772480182 ) ) ;
#221 = CARTESIAN_POINT ( 'NONE',  ( 0.03179115781201456020, -1.750309095598716169, -0.06118534667724338794 ) ) ;
#222 = EDGE_LOOP ( 'NONE', ( #106 ) ) ;
#223 = CARTESIAN_POINT ( 'NONE',  ( 0.06274239563822141263, -1.725006150873094279, -0.02872883128210578646 ) ) ;
#224 = ADVANCED_FACE ( 'NONE', ( #94, #126 ), #31, .T. ) ;
#225 = CARTESIAN_POINT ( 'NONE',  ( 0.0000000000000000000, 0.6889763779527560139, 0.0000000000000000000 ) ) ;
#226 = CARTESIAN_POINT ( 'NONE',  ( 0.0000000000000000000, -0.6889763779527560139, 0.06889763779527559306 ) ) ;
#227 = APPLICATION_PROTOCOL_DEFINITION ( 'draft international standard', 'automotive_design', 1998, #112 ) ;
#228 = PRESENTATION_STYLE_ASSIGNMENT (( #124 ) ) ;
#229 = APPLICATION_CONTEXT ( 'automotive_design' ) ;
#230 = AXIS2_PLACEMENT_3D ( 'NONE', #163, #54, #188 ) ;
#231 = EDGE_LOOP ( 'NONE', ( #63 ) ) ;
#232 = CARTESIAN_POINT ( 'NONE',  ( 0.0000000000000000000, -0.6889763779527560139, 0.0000000000000000000 ) ) ;
#233 = CARTESIAN_POINT ( 'NONE',  ( 0.03184136157758112040, -1.750811346978415894, 0.06135067815014526305 ) ) ;
#234 = CARTESIAN_POINT ( 'NONE',  ( -0.06904151213620986216, -1.713572636109016445, 0.003183609375569992645 ) ) ;
#235 = CARTESIAN_POINT ( 'NONE',  ( -0.007076720708271685110, -1.713495939715352412, 0.06863055319051676595 ) ) ;
#236 = CARTESIAN_POINT ( 'NONE',  ( 0.06110485018613573405, -1.729081818348666477, -0.03205800645133578819 ) ) ;
#237 = CARTESIAN_POINT ( 'NONE',  ( -0.05953333620016552918, -1.695362874407738030, 0.03499946952165964437 ) ) ;
#238 = AXIS2_PLACEMENT_3D ( 'NONE', #192, #170, #78 ) ;
#239 = CARTESIAN_POINT ( 'NONE',  ( 0.01859505836837284029, -1.741733316484588290, -0.06645986660528779844 ) ) ;
#240 =( NAMED_UNIT ( * ) SI_UNIT ( $, .STERADIAN. ) SOLID_ANGLE_UNIT ( ) );
#241 = DIRECTION ( 'NONE',  ( 0.0000000000000000000, 0.0000000000000000000, -1.000000000000000000 ) ) ;
#242 = FACE_OUTER_BOUND ( 'NONE', #231, .T. ) ;
#243 = DIRECTION ( 'NONE',  ( 0.0000000000000000000, -1.000000000000000000, -0.0000000000000000000 ) ) ;
#244 = FACE_BOUND ( 'NONE', #74, .T. ) ;
#245 = UNCERTAINTY_MEASURE_WITH_UNIT (LENGTH_MEASURE( 1.000000000000000082E-05 ), #92, 'distance_accuracy_value', 'NONE');
#246 = ORIENTED_EDGE ( 'NONE', *, *, #65, .F. ) ;
#247 = LENGTH_MEASURE_WITH_UNIT ( LENGTH_MEASURE( 0.02539999999999999897 ), #185 );
ENDSEC;
END-ISO-10303-21;
