ISO-10303-21;
HEADER;
FILE_DESCRIPTION (( 'STEP AP214' ),
    '1' );
FILE_NAME ('LPCS08-12.step',
    '2017-08-09T17:35:38',
    ( '' ),
    ( '' ),
    'SwSTEP 2.0',
    'SolidWorks 2017',
    '' );
FILE_SCHEMA (( 'AUTOMOTIVE_DESIGN' ));
ENDSEC;

DATA;
#1 = ORIENTED_EDGE ( 'NONE', *, *, #129, .F. ) ;
#2 = EDGE_CURVE ( 'NONE', #128, #25, #23, .T. ) ;
#3 = CARTESIAN_POINT ( 'NONE',  ( 0.2497500000000000000, 3.058555380870514300E-017, 6.000000000000000900 ) ) ;
#4 = CIRCLE ( 'NONE', #6, 0.2497500000000000000 ) ;
#5 = EDGE_LOOP ( 'NONE', ( #85, #33, #28, #118 ) ) ;
#6 = AXIS2_PLACEMENT_3D ( 'NONE', #20, #102, #31 ) ;
#7 = DIRECTION ( 'NONE',  ( -0.0000000000000000000, -0.0000000000000000000, -1.000000000000000000 ) ) ;
#8 =( NAMED_UNIT ( * ) SI_UNIT ( $, .STERADIAN. ) SOLID_ANGLE_UNIT ( ) );
#9 = LINE ( 'NONE', #3, #63 ) ;
#10 = ADVANCED_FACE ( 'NONE', ( #105 ), #62, .F. ) ;
#11 = CARTESIAN_POINT ( 'NONE',  ( 0.2497500000000000000, 3.058555380870514300E-017, -6.000000000000000900 ) ) ;
#12 = FACE_OUTER_BOUND ( 'NONE', #5, .T. ) ;
#13 = APPLICATION_PROTOCOL_DEFINITION ( 'draft international standard', 'automotive_design', 1998, #77 ) ;
#14 = FILL_AREA_STYLE ('',( #69 ) ) ;
#15 = AXIS2_PLACEMENT_3D ( 'NONE', #65, #149, #78 ) ;
#16 = DIRECTION ( 'NONE',  ( -0.0000000000000000000, -0.0000000000000000000, -1.000000000000000000 ) ) ;
#17 = DIMENSIONAL_EXPONENTS ( 1.000000000000000000, 0.0000000000000000000, 0.0000000000000000000, 0.0000000000000000000, 0.0000000000000000000, 0.0000000000000000000, 0.0000000000000000000 ) ;
#18 = AXIS2_PLACEMENT_3D ( 'NONE', #119, #43, #131 ) ;
#19 = CYLINDRICAL_SURFACE ( 'NONE', #61, 0.2497500000000000000 ) ;
#20 = CARTESIAN_POINT ( 'NONE',  ( 0.0000000000000000000, 0.0000000000000000000, 6.000000000000000900 ) ) ;
#21 = COLOUR_RGB ( '',0.7921568627450980000, 0.8196078431372548800, 0.9333333333333333500 ) ;
#22 = SURFACE_STYLE_USAGE ( .BOTH. , #93 ) ;
#23 = CIRCLE ( 'NONE', #106, 0.2497500000000000000 ) ;
#24 = CARTESIAN_POINT ( 'NONE',  ( -0.2497500000000000000, 0.0000000000000000000, 6.000000000000000900 ) ) ;
#25 = VERTEX_POINT ( 'NONE', #11 ) ;
#26 = AXIS2_PLACEMENT_3D ( 'NONE', #109, #16, #98 ) ;
#27 = CARTESIAN_POINT ( 'NONE',  ( 0.2497500000000000000, 3.058555380870514300E-017, 6.000000000000000900 ) ) ;
#28 = ORIENTED_EDGE ( 'NONE', *, *, #129, .T. ) ;
#29 = PRODUCT ( 'LPCS08-12', 'LPCS08-12', '', ( #147 ) ) ;
#30 = VECTOR ( 'NONE', #132, 39.37007874015748100 ) ;
#31 = DIRECTION ( 'NONE',  ( 1.000000000000000000, 0.0000000000000000000, 0.0000000000000000000 ) ) ;
#32 = DIRECTION ( 'NONE',  ( 1.000000000000000000, 0.0000000000000000000, -0.0000000000000000000 ) ) ;
#33 = ORIENTED_EDGE ( 'NONE', *, *, #122, .F. ) ;
#34 = CYLINDRICAL_SURFACE ( 'NONE', #26, 0.2497500000000000000 ) ;
#35 = DIRECTION ( 'NONE',  ( 0.0000000000000000000, 0.0000000000000000000, 1.000000000000000000 ) ) ;
#36 = CLOSED_SHELL ( 'NONE', ( #47, #99, #111, #10 ) ) ;
#37 = FILL_AREA_STYLE_COLOUR ( '', #45 ) ;
#38 = DIMENSIONAL_EXPONENTS ( 1.000000000000000000, 0.0000000000000000000, 0.0000000000000000000, 0.0000000000000000000, 0.0000000000000000000, 0.0000000000000000000, 0.0000000000000000000 ) ;
#39 = AXIS2_PLACEMENT_3D ( 'NONE', #107, #35, #120 ) ;
#40 =( NAMED_UNIT ( * ) PLANE_ANGLE_UNIT ( ) SI_UNIT ( $, .RADIAN. ) );
#41 =( CONVERSION_BASED_UNIT ( 'INCH', #148 ) LENGTH_UNIT ( ) NAMED_UNIT ( #38 ) );
#42 = PLANE ( 'NONE',  #18 ) ;
#43 = DIRECTION ( 'NONE',  ( 0.0000000000000000000, 0.0000000000000000000, 1.000000000000000000 ) ) ;
#44 =( GEOMETRIC_REPRESENTATION_CONTEXT ( 3 ) GLOBAL_UNCERTAINTY_ASSIGNED_CONTEXT ( ( #53 ) ) GLOBAL_UNIT_ASSIGNED_CONTEXT ( ( #143, #71, #8 ) ) REPRESENTATION_CONTEXT ( 'NONE', 'WORKASPACE' ) );
#45 = COLOUR_RGB ( '',0.7921568627450980000, 0.8196078431372548800, 0.9333333333333333500 ) ;
#46 = SURFACE_SIDE_STYLE ('',( #140 ) ) ;
#47 = ADVANCED_FACE ( 'NONE', ( #112 ), #19, .T. ) ;
#48 = PRESENTATION_STYLE_ASSIGNMENT (( #135 ) ) ;
#49 = CARTESIAN_POINT ( 'NONE',  ( 0.0000000000000000000, 0.0000000000000000000, -6.000000000000000900 ) ) ;
#50 =( NAMED_UNIT ( * ) SI_UNIT ( $, .STERADIAN. ) SOLID_ANGLE_UNIT ( ) );
#51 = VERTEX_POINT ( 'NONE', #97 ) ;
#52 = MECHANICAL_DESIGN_GEOMETRIC_PRESENTATION_REPRESENTATION (  '', ( #70 ), #44 ) ;
#53 = UNCERTAINTY_MEASURE_WITH_UNIT (LENGTH_MEASURE( 1.000000000000000100E-005 ), #143, 'distance_accuracy_value', 'NONE');
#54 = CARTESIAN_POINT ( 'NONE',  ( -0.2497500000000000000, 0.0000000000000000000, -6.000000000000000900 ) ) ;
#55 = PRODUCT_RELATED_PRODUCT_CATEGORY ( 'part', '', ( #29 ) ) ;
#56 = ORIENTED_EDGE ( 'NONE', *, *, #142, .T. ) ;
#57 =( LENGTH_UNIT ( ) NAMED_UNIT ( * ) SI_UNIT ( $, .METRE. ) );
#58 = LINE ( 'NONE', #24, #30 ) ;
#59 = PRODUCT_DEFINITION_SHAPE ( 'NONE', 'NONE',  #74 ) ;
#60 = ORIENTED_EDGE ( 'NONE', *, *, #137, .T. ) ;
#61 = AXIS2_PLACEMENT_3D ( 'NONE', #141, #7, #86 ) ;
#62 = PLANE ( 'NONE',  #81 ) ;
#63 = VECTOR ( 'NONE', #82, 39.37007874015748100 ) ;
#64 = DIRECTION ( 'NONE',  ( 1.000000000000000000, 0.0000000000000000000, 0.0000000000000000000 ) ) ;
#65 = CARTESIAN_POINT ( 'NONE',  ( 0.0000000000000000000, 0.0000000000000000000, -6.000000000000000900 ) ) ;
#66 = APPLICATION_PROTOCOL_DEFINITION ( 'draft international standard', 'automotive_design', 1998, #79 ) ;
#67 = EDGE_LOOP ( 'NONE', ( #101, #94, #60, #1 ) ) ;
#68 = PRODUCT_DEFINITION_FORMATION_WITH_SPECIFIED_SOURCE ( 'ANY', '', #29, .NOT_KNOWN. ) ;
#69 = FILL_AREA_STYLE_COLOUR ( '', #21 ) ;
#70 = STYLED_ITEM ( 'NONE', ( #48 ), #72 ) ;
#71 =( NAMED_UNIT ( * ) PLANE_ANGLE_UNIT ( ) SI_UNIT ( $, .RADIAN. ) );
#72 = MANIFOLD_SOLID_BREP ( 'Boss-Extrude1', #36 ) ;
#73 = LENGTH_MEASURE_WITH_UNIT ( LENGTH_MEASURE( 0.02539999999999999900 ), #104 );
#74 = PRODUCT_DEFINITION ( 'UNKNOWN', '', #68, #83 ) ;
#75 = DIRECTION ( 'NONE',  ( 0.0000000000000000000, 0.0000000000000000000, 1.000000000000000000 ) ) ;
#76 = DIRECTION ( 'NONE',  ( 1.000000000000000000, 0.0000000000000000000, 0.0000000000000000000 ) ) ;
#77 = APPLICATION_CONTEXT ( 'automotive_design' ) ;
#78 = DIRECTION ( 'NONE',  ( 1.000000000000000000, 0.0000000000000000000, 0.0000000000000000000 ) ) ;
#79 = APPLICATION_CONTEXT ( 'automotive_design' ) ;
#80 = CIRCLE ( 'NONE', #39, 0.2497500000000000000 ) ;
#81 = AXIS2_PLACEMENT_3D ( 'NONE', #90, #103, #32 ) ;
#82 = DIRECTION ( 'NONE',  ( -0.0000000000000000000, -0.0000000000000000000, -1.000000000000000000 ) ) ;
#83 = PRODUCT_DEFINITION_CONTEXT ( 'detailed design', #77, 'design' ) ;
#84 = AXIS2_PLACEMENT_3D ( 'NONE', #92, #138, #64 ) ;
#85 = ORIENTED_EDGE ( 'NONE', *, *, #113, .F. ) ;
#86 = DIRECTION ( 'NONE',  ( -1.000000000000000000, 0.0000000000000000000, 0.0000000000000000000 ) ) ;
#87 = UNCERTAINTY_MEASURE_WITH_UNIT (LENGTH_MEASURE( 1.000000000000000100E-005 ), #41, 'distance_accuracy_value', 'NONE');
#88 = DIMENSIONAL_EXPONENTS ( 1.000000000000000000, 0.0000000000000000000, 0.0000000000000000000, 0.0000000000000000000, 0.0000000000000000000, 0.0000000000000000000, 0.0000000000000000000 ) ;
#89 = VERTEX_POINT ( 'NONE', #27 ) ;
#90 = CARTESIAN_POINT ( 'NONE',  ( 0.0000000000000000000, 0.0000000000000000000, -6.000000000000000900 ) ) ;
#91 = PRESENTATION_LAYER_ASSIGNMENT (  '', '', ( #70 ) ) ;
#92 = CARTESIAN_POINT ( 'NONE',  ( 0.0000000000000000000, 0.0000000000000000000, 0.0000000000000000000 ) ) ;
#93 = SURFACE_SIDE_STYLE ('',( #139 ) ) ;
#94 = ORIENTED_EDGE ( 'NONE', *, *, #113, .T. ) ;
#95 = CIRCLE ( 'NONE', #15, 0.2497500000000000000 ) ;
#96 = ORIENTED_EDGE ( 'NONE', *, *, #122, .T. ) ;
#97 = CARTESIAN_POINT ( 'NONE',  ( -0.2497500000000000000, 0.0000000000000000000, 6.000000000000000900 ) ) ;
#98 = DIRECTION ( 'NONE',  ( -1.000000000000000000, 0.0000000000000000000, 0.0000000000000000000 ) ) ;
#99 = ADVANCED_FACE ( 'NONE', ( #12 ), #34, .T. ) ;
#100 = SHAPE_DEFINITION_REPRESENTATION ( #59, #114 ) ;
#101 = ORIENTED_EDGE ( 'NONE', *, *, #142, .F. ) ;
#102 = DIRECTION ( 'NONE',  ( 0.0000000000000000000, 0.0000000000000000000, 1.000000000000000000 ) ) ;
#103 = DIRECTION ( 'NONE',  ( 0.0000000000000000000, 0.0000000000000000000, 1.000000000000000000 ) ) ;
#104 =( LENGTH_UNIT ( ) NAMED_UNIT ( * ) SI_UNIT ( $, .METRE. ) );
#105 = FACE_OUTER_BOUND ( 'NONE', #124, .T. ) ;
#106 = AXIS2_PLACEMENT_3D ( 'NONE', #49, #75, #76 ) ;
#107 = CARTESIAN_POINT ( 'NONE',  ( 0.0000000000000000000, 0.0000000000000000000, 6.000000000000000900 ) ) ;
#108 =( GEOMETRIC_REPRESENTATION_CONTEXT ( 3 ) GLOBAL_UNCERTAINTY_ASSIGNED_CONTEXT ( ( #144 ) ) GLOBAL_UNIT_ASSIGNED_CONTEXT ( ( #115, #40, #126 ) ) REPRESENTATION_CONTEXT ( 'NONE', 'WORKASPACE' ) );
#109 = CARTESIAN_POINT ( 'NONE',  ( 0.0000000000000000000, 0.0000000000000000000, 6.000000000000000900 ) ) ;
#110 = PRESENTATION_STYLE_ASSIGNMENT (( #22 ) ) ;
#111 = ADVANCED_FACE ( 'NONE', ( #130 ), #42, .T. ) ;
#112 = FACE_OUTER_BOUND ( 'NONE', #67, .T. ) ;
#113 = EDGE_CURVE ( 'NONE', #89, #25, #9, .T. ) ;
#114 = ADVANCED_BREP_SHAPE_REPRESENTATION ( 'LPCS08-12', ( #72, #84 ), #145 ) ;
#115 =( CONVERSION_BASED_UNIT ( 'INCH', #73 ) LENGTH_UNIT ( ) NAMED_UNIT ( #17 ) );
#116 =( LENGTH_UNIT ( ) NAMED_UNIT ( * ) SI_UNIT ( $, .METRE. ) );
#117 = MECHANICAL_DESIGN_GEOMETRIC_PRESENTATION_REPRESENTATION (  '', ( #134 ), #108 ) ;
#118 = ORIENTED_EDGE ( 'NONE', *, *, #2, .T. ) ;
#119 = CARTESIAN_POINT ( 'NONE',  ( 0.0000000000000000000, 0.0000000000000000000, 6.000000000000000900 ) ) ;
#120 = DIRECTION ( 'NONE',  ( 1.000000000000000000, 0.0000000000000000000, 0.0000000000000000000 ) ) ;
#121 = EDGE_LOOP ( 'NONE', ( #96, #56 ) ) ;
#122 = EDGE_CURVE ( 'NONE', #51, #89, #80, .T. ) ;
#123 = FILL_AREA_STYLE ('',( #37 ) ) ;
#124 = EDGE_LOOP ( 'NONE', ( #146, #133 ) ) ;
#125 = PRESENTATION_LAYER_ASSIGNMENT (  '', '', ( #134 ) ) ;
#126 =( NAMED_UNIT ( * ) SI_UNIT ( $, .STERADIAN. ) SOLID_ANGLE_UNIT ( ) );
#127 =( NAMED_UNIT ( * ) PLANE_ANGLE_UNIT ( ) SI_UNIT ( $, .RADIAN. ) );
#128 = VERTEX_POINT ( 'NONE', #54 ) ;
#129 = EDGE_CURVE ( 'NONE', #51, #128, #58, .T. ) ;
#130 = FACE_OUTER_BOUND ( 'NONE', #121, .T. ) ;
#131 = DIRECTION ( 'NONE',  ( 1.000000000000000000, 0.0000000000000000000, -0.0000000000000000000 ) ) ;
#132 = DIRECTION ( 'NONE',  ( -0.0000000000000000000, -0.0000000000000000000, -1.000000000000000000 ) ) ;
#133 = ORIENTED_EDGE ( 'NONE', *, *, #137, .F. ) ;
#134 = STYLED_ITEM ( 'NONE', ( #110 ), #114 ) ;
#135 = SURFACE_STYLE_USAGE ( .BOTH. , #46 ) ;
#136 = LENGTH_MEASURE_WITH_UNIT ( LENGTH_MEASURE( 0.02539999999999999900 ), #57 );
#137 = EDGE_CURVE ( 'NONE', #25, #128, #95, .T. ) ;
#138 = DIRECTION ( 'NONE',  ( 0.0000000000000000000, 0.0000000000000000000, 1.000000000000000000 ) ) ;
#139 = SURFACE_STYLE_FILL_AREA ( #14 ) ;
#140 = SURFACE_STYLE_FILL_AREA ( #123 ) ;
#141 = CARTESIAN_POINT ( 'NONE',  ( 0.0000000000000000000, 0.0000000000000000000, 6.000000000000000900 ) ) ;
#142 = EDGE_CURVE ( 'NONE', #89, #51, #4, .T. ) ;
#143 =( CONVERSION_BASED_UNIT ( 'INCH', #136 ) LENGTH_UNIT ( ) NAMED_UNIT ( #88 ) );
#144 = UNCERTAINTY_MEASURE_WITH_UNIT (LENGTH_MEASURE( 1.000000000000000100E-005 ), #115, 'distance_accuracy_value', 'NONE');
#145 =( GEOMETRIC_REPRESENTATION_CONTEXT ( 3 ) GLOBAL_UNCERTAINTY_ASSIGNED_CONTEXT ( ( #87 ) ) GLOBAL_UNIT_ASSIGNED_CONTEXT ( ( #41, #127, #50 ) ) REPRESENTATION_CONTEXT ( 'NONE', 'WORKASPACE' ) );
#146 = ORIENTED_EDGE ( 'NONE', *, *, #2, .F. ) ;
#147 = PRODUCT_CONTEXT ( 'NONE', #79, 'mechanical' ) ;
#148 = LENGTH_MEASURE_WITH_UNIT ( LENGTH_MEASURE( 0.02539999999999999900 ), #116 );
#149 = DIRECTION ( 'NONE',  ( 0.0000000000000000000, 0.0000000000000000000, 1.000000000000000000 ) ) ;
ENDSEC;
END-ISO-10303-21;
