ISO-10303-21;
HEADER;
FILE_DESCRIPTION (( 'STEP AP214' ),
    '1' );
FILE_NAME ('LPCS08-24.step',
    '2017-08-09T17:35:56',
    ( '' ),
    ( '' ),
    'SwSTEP 2.0',
    'SolidWorks 2017',
    '' );
FILE_SCHEMA (( 'AUTOMOTIVE_DESIGN' ));
ENDSEC;

DATA;
#1 = EDGE_CURVE ( 'NONE', #46, #149, #61, .T. ) ;
#2 = FACE_OUTER_BOUND ( 'NONE', #12, .T. ) ;
#3 = DIRECTION ( 'NONE',  ( 1.000000000000000000, 0.0000000000000000000, 0.0000000000000000000 ) ) ;
#4 = DIRECTION ( 'NONE',  ( -0.0000000000000000000, -0.0000000000000000000, -1.000000000000000000 ) ) ;
#5 = PRESENTATION_STYLE_ASSIGNMENT (( #65 ) ) ;
#6 =( NAMED_UNIT ( * ) PLANE_ANGLE_UNIT ( ) SI_UNIT ( $, .RADIAN. ) );
#7 = LINE ( 'NONE', #92, #125 ) ;
#8 = STYLED_ITEM ( 'NONE', ( #5 ), #76 ) ;
#9 = EDGE_CURVE ( 'NONE', #46, #57, #115, .T. ) ;
#10 = SURFACE_STYLE_FILL_AREA ( #39 ) ;
#11 = EDGE_LOOP ( 'NONE', ( #134, #81 ) ) ;
#12 = EDGE_LOOP ( 'NONE', ( #117, #20, #137, #139 ) ) ;
#13 = DIRECTION ( 'NONE',  ( 0.0000000000000000000, 0.0000000000000000000, 1.000000000000000000 ) ) ;
#14 = PRESENTATION_LAYER_ASSIGNMENT (  '', '', ( #8 ) ) ;
#15 = DIRECTION ( 'NONE',  ( 1.000000000000000000, 0.0000000000000000000, -0.0000000000000000000 ) ) ;
#16 = PLANE ( 'NONE',  #135 ) ;
#17 = SHAPE_DEFINITION_REPRESENTATION ( #66, #76 ) ;
#18 =( NAMED_UNIT ( * ) PLANE_ANGLE_UNIT ( ) SI_UNIT ( $, .RADIAN. ) );
#19 = EDGE_CURVE ( 'NONE', #57, #46, #30, .T. ) ;
#20 = ORIENTED_EDGE ( 'NONE', *, *, #1, .T. ) ;
#21 = UNCERTAINTY_MEASURE_WITH_UNIT (LENGTH_MEASURE( 1.000000000000000100E-005 ), #63, 'distance_accuracy_value', 'NONE');
#22 = MECHANICAL_DESIGN_GEOMETRIC_PRESENTATION_REPRESENTATION (  '', ( #8 ), #29 ) ;
#23 = PRODUCT_DEFINITION_CONTEXT ( 'detailed design', #42, 'design' ) ;
#24 = EDGE_CURVE ( 'NONE', #59, #149, #122, .T. ) ;
#25 = CARTESIAN_POINT ( 'NONE',  ( 0.0000000000000000000, 0.0000000000000000000, 12.00000000000000200 ) ) ;
#26 = FILL_AREA_STYLE_COLOUR ( '', #68 ) ;
#27 = DIRECTION ( 'NONE',  ( 1.000000000000000000, 0.0000000000000000000, -0.0000000000000000000 ) ) ;
#28 = DIRECTION ( 'NONE',  ( 1.000000000000000000, 0.0000000000000000000, 0.0000000000000000000 ) ) ;
#29 =( GEOMETRIC_REPRESENTATION_CONTEXT ( 3 ) GLOBAL_UNCERTAINTY_ASSIGNED_CONTEXT ( ( #107 ) ) GLOBAL_UNIT_ASSIGNED_CONTEXT ( ( #79, #6, #95 ) ) REPRESENTATION_CONTEXT ( 'NONE', 'WORKASPACE' ) );
#30 = CIRCLE ( 'NONE', #43, 0.2497500000000000000 ) ;
#31 = AXIS2_PLACEMENT_3D ( 'NONE', #88, #13, #100 ) ;
#32 = FACE_OUTER_BOUND ( 'NONE', #108, .T. ) ;
#33 = DIRECTION ( 'NONE',  ( -0.0000000000000000000, -0.0000000000000000000, -1.000000000000000000 ) ) ;
#34 = CYLINDRICAL_SURFACE ( 'NONE', #96, 0.2497500000000000000 ) ;
#35 = ORIENTED_EDGE ( 'NONE', *, *, #147, .F. ) ;
#36 = CARTESIAN_POINT ( 'NONE',  ( 0.0000000000000000000, 0.0000000000000000000, 12.00000000000000200 ) ) ;
#37 = ADVANCED_FACE ( 'NONE', ( #32 ), #74, .F. ) ;
#38 = DIRECTION ( 'NONE',  ( -0.0000000000000000000, -0.0000000000000000000, -1.000000000000000000 ) ) ;
#39 = FILL_AREA_STYLE ('',( #26 ) ) ;
#40 = FILL_AREA_STYLE_COLOUR ( '', #56 ) ;
#41 = LENGTH_MEASURE_WITH_UNIT ( LENGTH_MEASURE( 0.02539999999999999900 ), #146 );
#42 = APPLICATION_CONTEXT ( 'automotive_design' ) ;
#43 = AXIS2_PLACEMENT_3D ( 'NONE', #36, #116, #51 ) ;
#44 = PRESENTATION_STYLE_ASSIGNMENT (( #53 ) ) ;
#45 = ORIENTED_EDGE ( 'NONE', *, *, #1, .F. ) ;
#46 = VERTEX_POINT ( 'NONE', #49 ) ;
#47 = UNCERTAINTY_MEASURE_WITH_UNIT (LENGTH_MEASURE( 1.000000000000000100E-005 ), #94, 'distance_accuracy_value', 'NONE');
#48 = AXIS2_PLACEMENT_3D ( 'NONE', #142, #75, #3 ) ;
#49 = CARTESIAN_POINT ( 'NONE',  ( 0.2497500000000000000, 3.058555380870514300E-017, 12.00000000000000200 ) ) ;
#50 = ADVANCED_FACE ( 'NONE', ( #2 ), #34, .T. ) ;
#51 = DIRECTION ( 'NONE',  ( 1.000000000000000000, 0.0000000000000000000, 0.0000000000000000000 ) ) ;
#52 = CARTESIAN_POINT ( 'NONE',  ( -0.2497500000000000000, 0.0000000000000000000, 12.00000000000000200 ) ) ;
#53 = SURFACE_STYLE_USAGE ( .BOTH. , #119 ) ;
#54 = CARTESIAN_POINT ( 'NONE',  ( 0.2497500000000000000, 3.058555380870514300E-017, -12.00000000000000200 ) ) ;
#55 = FILL_AREA_STYLE ('',( #40 ) ) ;
#56 = COLOUR_RGB ( '',0.7921568627450980000, 0.8196078431372548800, 0.9333333333333333500 ) ;
#57 = VERTEX_POINT ( 'NONE', #52 ) ;
#58 = AXIS2_PLACEMENT_3D ( 'NONE', #132, #105, #28 ) ;
#59 = VERTEX_POINT ( 'NONE', #130 ) ;
#60 = CARTESIAN_POINT ( 'NONE',  ( 0.0000000000000000000, 0.0000000000000000000, 12.00000000000000200 ) ) ;
#61 = LINE ( 'NONE', #126, #98 ) ;
#62 = PRODUCT_DEFINITION ( 'UNKNOWN', '', #70, #23 ) ;
#63 =( CONVERSION_BASED_UNIT ( 'INCH', #80 ) LENGTH_UNIT ( ) NAMED_UNIT ( #86 ) );
#64 = CARTESIAN_POINT ( 'NONE',  ( 0.0000000000000000000, 0.0000000000000000000, -12.00000000000000200 ) ) ;
#65 = SURFACE_STYLE_USAGE ( .BOTH. , #133 ) ;
#66 = PRODUCT_DEFINITION_SHAPE ( 'NONE', 'NONE',  #62 ) ;
#67 = STYLED_ITEM ( 'NONE', ( #44 ), #138 ) ;
#68 = COLOUR_RGB ( '',0.7921568627450980000, 0.8196078431372548800, 0.9333333333333333500 ) ;
#69 = FACE_OUTER_BOUND ( 'NONE', #110, .T. ) ;
#70 = PRODUCT_DEFINITION_FORMATION_WITH_SPECIFIED_SOURCE ( 'ANY', '', #83, .NOT_KNOWN. ) ;
#71 = DIMENSIONAL_EXPONENTS ( 1.000000000000000000, 0.0000000000000000000, 0.0000000000000000000, 0.0000000000000000000, 0.0000000000000000000, 0.0000000000000000000, 0.0000000000000000000 ) ;
#72 = AXIS2_PLACEMENT_3D ( 'NONE', #129, #90, #15 ) ;
#73 = ORIENTED_EDGE ( 'NONE', *, *, #24, .T. ) ;
#74 = PLANE ( 'NONE',  #72 ) ;
#75 = DIRECTION ( 'NONE',  ( 0.0000000000000000000, 0.0000000000000000000, 1.000000000000000000 ) ) ;
#76 = ADVANCED_BREP_SHAPE_REPRESENTATION ( 'LPCS08-24', ( #138, #58 ), #140 ) ;
#77 =( NAMED_UNIT ( * ) SI_UNIT ( $, .STERADIAN. ) SOLID_ANGLE_UNIT ( ) );
#78 = DIRECTION ( 'NONE',  ( 1.000000000000000000, 0.0000000000000000000, 0.0000000000000000000 ) ) ;
#79 =( CONVERSION_BASED_UNIT ( 'INCH', #41 ) LENGTH_UNIT ( ) NAMED_UNIT ( #71 ) );
#80 = LENGTH_MEASURE_WITH_UNIT ( LENGTH_MEASURE( 0.02539999999999999900 ), #131 );
#81 = ORIENTED_EDGE ( 'NONE', *, *, #9, .T. ) ;
#82 = PRODUCT_RELATED_PRODUCT_CATEGORY ( 'part', '', ( #83 ) ) ;
#83 = PRODUCT ( 'LPCS08-24', 'LPCS08-24', '', ( #113 ) ) ;
#84 = ORIENTED_EDGE ( 'NONE', *, *, #19, .F. ) ;
#85 = PRESENTATION_LAYER_ASSIGNMENT (  '', '', ( #67 ) ) ;
#86 = DIMENSIONAL_EXPONENTS ( 1.000000000000000000, 0.0000000000000000000, 0.0000000000000000000, 0.0000000000000000000, 0.0000000000000000000, 0.0000000000000000000, 0.0000000000000000000 ) ;
#87 = CIRCLE ( 'NONE', #124, 0.2497500000000000000 ) ;
#88 = CARTESIAN_POINT ( 'NONE',  ( 0.0000000000000000000, 0.0000000000000000000, 12.00000000000000200 ) ) ;
#89 = DIMENSIONAL_EXPONENTS ( 1.000000000000000000, 0.0000000000000000000, 0.0000000000000000000, 0.0000000000000000000, 0.0000000000000000000, 0.0000000000000000000, 0.0000000000000000000 ) ;
#90 = DIRECTION ( 'NONE',  ( 0.0000000000000000000, 0.0000000000000000000, 1.000000000000000000 ) ) ;
#91 = ORIENTED_EDGE ( 'NONE', *, *, #24, .F. ) ;
#92 = CARTESIAN_POINT ( 'NONE',  ( -0.2497500000000000000, 0.0000000000000000000, 12.00000000000000200 ) ) ;
#93 = CARTESIAN_POINT ( 'NONE',  ( 0.0000000000000000000, 0.0000000000000000000, 12.00000000000000200 ) ) ;
#94 =( CONVERSION_BASED_UNIT ( 'INCH', #148 ) LENGTH_UNIT ( ) NAMED_UNIT ( #89 ) );
#95 =( NAMED_UNIT ( * ) SI_UNIT ( $, .STERADIAN. ) SOLID_ANGLE_UNIT ( ) );
#96 = AXIS2_PLACEMENT_3D ( 'NONE', #25, #38, #102 ) ;
#97 = ORIENTED_EDGE ( 'NONE', *, *, #136, .T. ) ;
#98 = VECTOR ( 'NONE', #33, 39.37007874015748100 ) ;
#99 = AXIS2_PLACEMENT_3D ( 'NONE', #60, #143, #118 ) ;
#100 = DIRECTION ( 'NONE',  ( 1.000000000000000000, 0.0000000000000000000, 0.0000000000000000000 ) ) ;
#101 = ADVANCED_FACE ( 'NONE', ( #69 ), #106, .T. ) ;
#102 = DIRECTION ( 'NONE',  ( -1.000000000000000000, 0.0000000000000000000, 0.0000000000000000000 ) ) ;
#103 = DIRECTION ( 'NONE',  ( 0.0000000000000000000, 0.0000000000000000000, 1.000000000000000000 ) ) ;
#104 =( NAMED_UNIT ( * ) SI_UNIT ( $, .STERADIAN. ) SOLID_ANGLE_UNIT ( ) );
#105 = DIRECTION ( 'NONE',  ( 0.0000000000000000000, 0.0000000000000000000, 1.000000000000000000 ) ) ;
#106 = CYLINDRICAL_SURFACE ( 'NONE', #99, 0.2497500000000000000 ) ;
#107 = UNCERTAINTY_MEASURE_WITH_UNIT (LENGTH_MEASURE( 1.000000000000000100E-005 ), #79, 'distance_accuracy_value', 'NONE');
#108 = EDGE_LOOP ( 'NONE', ( #91, #35 ) ) ;
#109 = MECHANICAL_DESIGN_GEOMETRIC_PRESENTATION_REPRESENTATION (  '', ( #67 ), #114 ) ;
#110 = EDGE_LOOP ( 'NONE', ( #45, #84, #97, #73 ) ) ;
#111 =( LENGTH_UNIT ( ) NAMED_UNIT ( * ) SI_UNIT ( $, .METRE. ) );
#112 = APPLICATION_PROTOCOL_DEFINITION ( 'draft international standard', 'automotive_design', 1998, #120 ) ;
#113 = PRODUCT_CONTEXT ( 'NONE', #120, 'mechanical' ) ;
#114 =( GEOMETRIC_REPRESENTATION_CONTEXT ( 3 ) GLOBAL_UNCERTAINTY_ASSIGNED_CONTEXT ( ( #21 ) ) GLOBAL_UNIT_ASSIGNED_CONTEXT ( ( #63, #144, #77 ) ) REPRESENTATION_CONTEXT ( 'NONE', 'WORKASPACE' ) );
#115 = CIRCLE ( 'NONE', #31, 0.2497500000000000000 ) ;
#116 = DIRECTION ( 'NONE',  ( 0.0000000000000000000, 0.0000000000000000000, 1.000000000000000000 ) ) ;
#117 = ORIENTED_EDGE ( 'NONE', *, *, #9, .F. ) ;
#118 = DIRECTION ( 'NONE',  ( -1.000000000000000000, 0.0000000000000000000, 0.0000000000000000000 ) ) ;
#119 = SURFACE_SIDE_STYLE ('',( #10 ) ) ;
#120 = APPLICATION_CONTEXT ( 'automotive_design' ) ;
#121 = APPLICATION_PROTOCOL_DEFINITION ( 'draft international standard', 'automotive_design', 1998, #42 ) ;
#122 = CIRCLE ( 'NONE', #48, 0.2497500000000000000 ) ;
#123 = SURFACE_STYLE_FILL_AREA ( #55 ) ;
#124 = AXIS2_PLACEMENT_3D ( 'NONE', #64, #145, #78 ) ;
#125 = VECTOR ( 'NONE', #4, 39.37007874015748100 ) ;
#126 = CARTESIAN_POINT ( 'NONE',  ( 0.2497500000000000000, 3.058555380870514300E-017, 12.00000000000000200 ) ) ;
#127 = FACE_OUTER_BOUND ( 'NONE', #11, .T. ) ;
#128 = CLOSED_SHELL ( 'NONE', ( #50, #101, #141, #37 ) ) ;
#129 = CARTESIAN_POINT ( 'NONE',  ( 0.0000000000000000000, 0.0000000000000000000, -12.00000000000000200 ) ) ;
#130 = CARTESIAN_POINT ( 'NONE',  ( -0.2497500000000000000, 0.0000000000000000000, -12.00000000000000200 ) ) ;
#131 =( LENGTH_UNIT ( ) NAMED_UNIT ( * ) SI_UNIT ( $, .METRE. ) );
#132 = CARTESIAN_POINT ( 'NONE',  ( 0.0000000000000000000, 0.0000000000000000000, 0.0000000000000000000 ) ) ;
#133 = SURFACE_SIDE_STYLE ('',( #123 ) ) ;
#134 = ORIENTED_EDGE ( 'NONE', *, *, #19, .T. ) ;
#135 = AXIS2_PLACEMENT_3D ( 'NONE', #93, #103, #27 ) ;
#136 = EDGE_CURVE ( 'NONE', #57, #59, #7, .T. ) ;
#137 = ORIENTED_EDGE ( 'NONE', *, *, #147, .T. ) ;
#138 = MANIFOLD_SOLID_BREP ( 'Boss-Extrude1', #128 ) ;
#139 = ORIENTED_EDGE ( 'NONE', *, *, #136, .F. ) ;
#140 =( GEOMETRIC_REPRESENTATION_CONTEXT ( 3 ) GLOBAL_UNCERTAINTY_ASSIGNED_CONTEXT ( ( #47 ) ) GLOBAL_UNIT_ASSIGNED_CONTEXT ( ( #94, #18, #104 ) ) REPRESENTATION_CONTEXT ( 'NONE', 'WORKASPACE' ) );
#141 = ADVANCED_FACE ( 'NONE', ( #127 ), #16, .T. ) ;
#142 = CARTESIAN_POINT ( 'NONE',  ( 0.0000000000000000000, 0.0000000000000000000, -12.00000000000000200 ) ) ;
#143 = DIRECTION ( 'NONE',  ( -0.0000000000000000000, -0.0000000000000000000, -1.000000000000000000 ) ) ;
#144 =( NAMED_UNIT ( * ) PLANE_ANGLE_UNIT ( ) SI_UNIT ( $, .RADIAN. ) );
#145 = DIRECTION ( 'NONE',  ( 0.0000000000000000000, 0.0000000000000000000, 1.000000000000000000 ) ) ;
#146 =( LENGTH_UNIT ( ) NAMED_UNIT ( * ) SI_UNIT ( $, .METRE. ) );
#147 = EDGE_CURVE ( 'NONE', #149, #59, #87, .T. ) ;
#148 = LENGTH_MEASURE_WITH_UNIT ( LENGTH_MEASURE( 0.02539999999999999900 ), #111 );
#149 = VERTEX_POINT ( 'NONE', #54 ) ;
ENDSEC;
END-ISO-10303-21;
