ISO-10303-21;
HEADER;
FILE_DESCRIPTION (( 'STEP AP214' ),
    '1' );
FILE_NAME ('LPCS08-36.step',
    '2017-08-09T17:36:13',
    ( '' ),
    ( '' ),
    'SwSTEP 2.0',
    'SolidWorks 2017',
    '' );
FILE_SCHEMA (( 'AUTOMOTIVE_DESIGN' ));
ENDSEC;

DATA;
#1 = ORIENTED_EDGE ( 'NONE', *, *, #100, .F. ) ;
#2 = AXIS2_PLACEMENT_3D ( 'NONE', #15, #133, #56 ) ;
#3 =( NAMED_UNIT ( * ) SI_UNIT ( $, .STERADIAN. ) SOLID_ANGLE_UNIT ( ) );
#4 = ORIENTED_EDGE ( 'NONE', *, *, #141, .T. ) ;
#5 = DIRECTION ( 'NONE',  ( -0.0000000000000000000, -0.0000000000000000000, -1.000000000000000000 ) ) ;
#6 = LINE ( 'NONE', #28, #127 ) ;
#7 = CARTESIAN_POINT ( 'NONE',  ( 0.0000000000000000000, 0.0000000000000000000, 18.00000000000000000 ) ) ;
#8 = VERTEX_POINT ( 'NONE', #59 ) ;
#9 = AXIS2_PLACEMENT_3D ( 'NONE', #114, #40, #128 ) ;
#10 = FACE_OUTER_BOUND ( 'NONE', #129, .T. ) ;
#11 = ADVANCED_FACE ( 'NONE', ( #22 ), #48, .T. ) ;
#12 = DIRECTION ( 'NONE',  ( -0.0000000000000000000, -0.0000000000000000000, -1.000000000000000000 ) ) ;
#13 =( NAMED_UNIT ( * ) SI_UNIT ( $, .STERADIAN. ) SOLID_ANGLE_UNIT ( ) );
#14 = DIRECTION ( 'NONE',  ( 0.0000000000000000000, 0.0000000000000000000, 1.000000000000000000 ) ) ;
#15 = CARTESIAN_POINT ( 'NONE',  ( 0.0000000000000000000, 0.0000000000000000000, 18.00000000000000000 ) ) ;
#16 = FILL_AREA_STYLE ('',( #85 ) ) ;
#17 = DIRECTION ( 'NONE',  ( 0.0000000000000000000, 0.0000000000000000000, 1.000000000000000000 ) ) ;
#18 = AXIS2_PLACEMENT_3D ( 'NONE', #118, #143, #71 ) ;
#19 = SURFACE_STYLE_FILL_AREA ( #16 ) ;
#20 = APPLICATION_PROTOCOL_DEFINITION ( 'draft international standard', 'automotive_design', 1998, #31 ) ;
#21 = PRODUCT_CONTEXT ( 'NONE', #31, 'mechanical' ) ;
#22 = FACE_OUTER_BOUND ( 'NONE', #87, .T. ) ;
#23 = SURFACE_STYLE_USAGE ( .BOTH. , #98 ) ;
#24 = MANIFOLD_SOLID_BREP ( 'Boss-Extrude1', #99 ) ;
#25 = VERTEX_POINT ( 'NONE', #148 ) ;
#26 = AXIS2_PLACEMENT_3D ( 'NONE', #33, #120, #45 ) ;
#27 = PRODUCT_DEFINITION_SHAPE ( 'NONE', 'NONE',  #61 ) ;
#28 = CARTESIAN_POINT ( 'NONE',  ( -0.2497500000000000000, 0.0000000000000000000, 18.00000000000000000 ) ) ;
#29 =( LENGTH_UNIT ( ) NAMED_UNIT ( * ) SI_UNIT ( $, .METRE. ) );
#30 = VERTEX_POINT ( 'NONE', #76 ) ;
#31 = APPLICATION_CONTEXT ( 'automotive_design' ) ;
#32 = APPLICATION_PROTOCOL_DEFINITION ( 'draft international standard', 'automotive_design', 1998, #105 ) ;
#33 = CARTESIAN_POINT ( 'NONE',  ( 0.0000000000000000000, 0.0000000000000000000, -18.00000000000000000 ) ) ;
#34 = ORIENTED_EDGE ( 'NONE', *, *, #108, .T. ) ;
#35 = AXIS2_PLACEMENT_3D ( 'NONE', #7, #5, #86 ) ;
#36 = CIRCLE ( 'NONE', #26, 0.2497500000000000000 ) ;
#37 =( CONVERSION_BASED_UNIT ( 'INCH', #107 ) LENGTH_UNIT ( ) NAMED_UNIT ( #93 ) );
#38 = COLOUR_RGB ( '',0.7921568627450980000, 0.8196078431372548800, 0.9333333333333333500 ) ;
#39 = UNCERTAINTY_MEASURE_WITH_UNIT (LENGTH_MEASURE( 1.000000000000000100E-005 ), #142, 'distance_accuracy_value', 'NONE');
#40 = DIRECTION ( 'NONE',  ( 0.0000000000000000000, 0.0000000000000000000, 1.000000000000000000 ) ) ;
#41 =( GEOMETRIC_REPRESENTATION_CONTEXT ( 3 ) GLOBAL_UNCERTAINTY_ASSIGNED_CONTEXT ( ( #83 ) ) GLOBAL_UNIT_ASSIGNED_CONTEXT ( ( #37, #124, #47 ) ) REPRESENTATION_CONTEXT ( 'NONE', 'WORKASPACE' ) );
#42 = SURFACE_SIDE_STYLE ('',( #63 ) ) ;
#43 = CARTESIAN_POINT ( 'NONE',  ( 0.0000000000000000000, 0.0000000000000000000, -18.00000000000000000 ) ) ;
#44 = LENGTH_MEASURE_WITH_UNIT ( LENGTH_MEASURE( 0.02539999999999999900 ), #54 );
#45 = DIRECTION ( 'NONE',  ( 1.000000000000000000, 0.0000000000000000000, 0.0000000000000000000 ) ) ;
#46 = PRODUCT_RELATED_PRODUCT_CATEGORY ( 'part', '', ( #64 ) ) ;
#47 =( NAMED_UNIT ( * ) SI_UNIT ( $, .STERADIAN. ) SOLID_ANGLE_UNIT ( ) );
#48 = CYLINDRICAL_SURFACE ( 'NONE', #77, 0.2497500000000000000 ) ;
#49 = MECHANICAL_DESIGN_GEOMETRIC_PRESENTATION_REPRESENTATION (  '', ( #67 ), #41 ) ;
#50 = ADVANCED_FACE ( 'NONE', ( #149 ), #69, .T. ) ;
#51 = CARTESIAN_POINT ( 'NONE',  ( 0.0000000000000000000, 0.0000000000000000000, 0.0000000000000000000 ) ) ;
#52 = PRODUCT_DEFINITION_FORMATION_WITH_SPECIFIED_SOURCE ( 'ANY', '', #64, .NOT_KNOWN. ) ;
#53 = ORIENTED_EDGE ( 'NONE', *, *, #116, .F. ) ;
#54 =( LENGTH_UNIT ( ) NAMED_UNIT ( * ) SI_UNIT ( $, .METRE. ) );
#55 = DIRECTION ( 'NONE',  ( 1.000000000000000000, 0.0000000000000000000, 0.0000000000000000000 ) ) ;
#56 = DIRECTION ( 'NONE',  ( 1.000000000000000000, 0.0000000000000000000, -0.0000000000000000000 ) ) ;
#57 = EDGE_LOOP ( 'NONE', ( #1, #73 ) ) ;
#58 = PRESENTATION_LAYER_ASSIGNMENT (  '', '', ( #67 ) ) ;
#59 = CARTESIAN_POINT ( 'NONE',  ( -0.2497500000000000000, 0.0000000000000000000, -18.00000000000000000 ) ) ;
#60 = CARTESIAN_POINT ( 'NONE',  ( -0.2497500000000000000, 0.0000000000000000000, 18.00000000000000000 ) ) ;
#61 = PRODUCT_DEFINITION ( 'UNKNOWN', '', #52, #119 ) ;
#62 = ORIENTED_EDGE ( 'NONE', *, *, #116, .T. ) ;
#63 = SURFACE_STYLE_FILL_AREA ( #117 ) ;
#64 = PRODUCT ( 'LPCS08-36', 'LPCS08-36', '', ( #21 ) ) ;
#65 = FILL_AREA_STYLE_COLOUR ( '', #113 ) ;
#66 = ORIENTED_EDGE ( 'NONE', *, *, #126, .F. ) ;
#67 = STYLED_ITEM ( 'NONE', ( #146 ), #24 ) ;
#68 = ADVANCED_BREP_SHAPE_REPRESENTATION ( 'LPCS08-36', ( #24, #74 ), #139 ) ;
#69 = CYLINDRICAL_SURFACE ( 'NONE', #35, 0.2497500000000000000 ) ;
#70 =( NAMED_UNIT ( * ) PLANE_ANGLE_UNIT ( ) SI_UNIT ( $, .RADIAN. ) );
#71 = DIRECTION ( 'NONE',  ( 1.000000000000000000, 0.0000000000000000000, -0.0000000000000000000 ) ) ;
#72 = SHAPE_DEFINITION_REPRESENTATION ( #27, #68 ) ;
#73 = ORIENTED_EDGE ( 'NONE', *, *, #108, .F. ) ;
#74 = AXIS2_PLACEMENT_3D ( 'NONE', #51, #14, #92 ) ;
#75 = CARTESIAN_POINT ( 'NONE',  ( 0.0000000000000000000, 0.0000000000000000000, 18.00000000000000000 ) ) ;
#76 = CARTESIAN_POINT ( 'NONE',  ( 0.2497500000000000000, 3.058555380870514900E-017, 18.00000000000000000 ) ) ;
#77 = AXIS2_PLACEMENT_3D ( 'NONE', #75, #147, #138 ) ;
#78 = ORIENTED_EDGE ( 'NONE', *, *, #141, .F. ) ;
#79 = CARTESIAN_POINT ( 'NONE',  ( 0.2497500000000000000, 3.058555380870514900E-017, 18.00000000000000000 ) ) ;
#80 =( NAMED_UNIT ( * ) PLANE_ANGLE_UNIT ( ) SI_UNIT ( $, .RADIAN. ) );
#81 = PRESENTATION_STYLE_ASSIGNMENT (( #130 ) ) ;
#82 = PLANE ( 'NONE',  #2 ) ;
#83 = UNCERTAINTY_MEASURE_WITH_UNIT (LENGTH_MEASURE( 1.000000000000000100E-005 ), #37, 'distance_accuracy_value', 'NONE');
#84 = CIRCLE ( 'NONE', #91, 0.2497500000000000000 ) ;
#85 = FILL_AREA_STYLE_COLOUR ( '', #38 ) ;
#86 = DIRECTION ( 'NONE',  ( -1.000000000000000000, 0.0000000000000000000, 0.0000000000000000000 ) ) ;
#87 = EDGE_LOOP ( 'NONE', ( #53, #66, #125, #123 ) ) ;
#88 = LENGTH_MEASURE_WITH_UNIT ( LENGTH_MEASURE( 0.02539999999999999900 ), #29 );
#89 = CARTESIAN_POINT ( 'NONE',  ( 0.0000000000000000000, 0.0000000000000000000, 18.00000000000000000 ) ) ;
#90 = ORIENTED_EDGE ( 'NONE', *, *, #136, .F. ) ;
#91 = AXIS2_PLACEMENT_3D ( 'NONE', #43, #132, #55 ) ;
#92 = DIRECTION ( 'NONE',  ( 1.000000000000000000, 0.0000000000000000000, 0.0000000000000000000 ) ) ;
#93 = DIMENSIONAL_EXPONENTS ( 1.000000000000000000, 0.0000000000000000000, 0.0000000000000000000, 0.0000000000000000000, 0.0000000000000000000, 0.0000000000000000000, 0.0000000000000000000 ) ;
#94 = EDGE_LOOP ( 'NONE', ( #78, #62, #34, #90 ) ) ;
#95 =( GEOMETRIC_REPRESENTATION_CONTEXT ( 3 ) GLOBAL_UNCERTAINTY_ASSIGNED_CONTEXT ( ( #39 ) ) GLOBAL_UNIT_ASSIGNED_CONTEXT ( ( #142, #70, #3 ) ) REPRESENTATION_CONTEXT ( 'NONE', 'WORKASPACE' ) );
#96 = UNCERTAINTY_MEASURE_WITH_UNIT (LENGTH_MEASURE( 1.000000000000000100E-005 ), #121, 'distance_accuracy_value', 'NONE');
#97 = LINE ( 'NONE', #79, #137 ) ;
#98 = SURFACE_SIDE_STYLE ('',( #19 ) ) ;
#99 = CLOSED_SHELL ( 'NONE', ( #50, #11, #112, #102 ) ) ;
#100 = EDGE_CURVE ( 'NONE', #8, #25, #84, .T. ) ;
#101 = CIRCLE ( 'NONE', #9, 0.2497500000000000000 ) ;
#102 = ADVANCED_FACE ( 'NONE', ( #115 ), #135, .F. ) ;
#103 = DIRECTION ( 'NONE',  ( 1.000000000000000000, 0.0000000000000000000, 0.0000000000000000000 ) ) ;
#104 = MECHANICAL_DESIGN_GEOMETRIC_PRESENTATION_REPRESENTATION (  '', ( #122 ), #95 ) ;
#105 = APPLICATION_CONTEXT ( 'automotive_design' ) ;
#106 = DIMENSIONAL_EXPONENTS ( 1.000000000000000000, 0.0000000000000000000, 0.0000000000000000000, 0.0000000000000000000, 0.0000000000000000000, 0.0000000000000000000, 0.0000000000000000000 ) ;
#107 = LENGTH_MEASURE_WITH_UNIT ( LENGTH_MEASURE( 0.02539999999999999900 ), #109 );
#108 = EDGE_CURVE ( 'NONE', #25, #8, #36, .T. ) ;
#109 =( LENGTH_UNIT ( ) NAMED_UNIT ( * ) SI_UNIT ( $, .METRE. ) );
#110 = ORIENTED_EDGE ( 'NONE', *, *, #126, .T. ) ;
#111 = PRESENTATION_LAYER_ASSIGNMENT (  '', '', ( #122 ) ) ;
#112 = ADVANCED_FACE ( 'NONE', ( #10 ), #82, .T. ) ;
#113 = COLOUR_RGB ( '',0.7921568627450980000, 0.8196078431372548800, 0.9333333333333333500 ) ;
#114 = CARTESIAN_POINT ( 'NONE',  ( 0.0000000000000000000, 0.0000000000000000000, 18.00000000000000000 ) ) ;
#115 = FACE_OUTER_BOUND ( 'NONE', #57, .T. ) ;
#116 = EDGE_CURVE ( 'NONE', #30, #25, #97, .T. ) ;
#117 = FILL_AREA_STYLE ('',( #65 ) ) ;
#118 = CARTESIAN_POINT ( 'NONE',  ( 0.0000000000000000000, 0.0000000000000000000, -18.00000000000000000 ) ) ;
#119 = PRODUCT_DEFINITION_CONTEXT ( 'detailed design', #105, 'design' ) ;
#120 = DIRECTION ( 'NONE',  ( 0.0000000000000000000, 0.0000000000000000000, 1.000000000000000000 ) ) ;
#121 =( CONVERSION_BASED_UNIT ( 'INCH', #88 ) LENGTH_UNIT ( ) NAMED_UNIT ( #106 ) );
#122 = STYLED_ITEM ( 'NONE', ( #81 ), #68 ) ;
#123 = ORIENTED_EDGE ( 'NONE', *, *, #100, .T. ) ;
#124 =( NAMED_UNIT ( * ) PLANE_ANGLE_UNIT ( ) SI_UNIT ( $, .RADIAN. ) );
#125 = ORIENTED_EDGE ( 'NONE', *, *, #136, .T. ) ;
#126 = EDGE_CURVE ( 'NONE', #134, #30, #101, .T. ) ;
#127 = VECTOR ( 'NONE', #140, 39.37007874015748100 ) ;
#128 = DIRECTION ( 'NONE',  ( 1.000000000000000000, 0.0000000000000000000, 0.0000000000000000000 ) ) ;
#129 = EDGE_LOOP ( 'NONE', ( #110, #4 ) ) ;
#130 = SURFACE_STYLE_USAGE ( .BOTH. , #42 ) ;
#131 = CIRCLE ( 'NONE', #145, 0.2497500000000000000 ) ;
#132 = DIRECTION ( 'NONE',  ( 0.0000000000000000000, 0.0000000000000000000, 1.000000000000000000 ) ) ;
#133 = DIRECTION ( 'NONE',  ( 0.0000000000000000000, 0.0000000000000000000, 1.000000000000000000 ) ) ;
#134 = VERTEX_POINT ( 'NONE', #60 ) ;
#135 = PLANE ( 'NONE',  #18 ) ;
#136 = EDGE_CURVE ( 'NONE', #134, #8, #6, .T. ) ;
#137 = VECTOR ( 'NONE', #12, 39.37007874015748100 ) ;
#138 = DIRECTION ( 'NONE',  ( -1.000000000000000000, 0.0000000000000000000, 0.0000000000000000000 ) ) ;
#139 =( GEOMETRIC_REPRESENTATION_CONTEXT ( 3 ) GLOBAL_UNCERTAINTY_ASSIGNED_CONTEXT ( ( #96 ) ) GLOBAL_UNIT_ASSIGNED_CONTEXT ( ( #121, #80, #13 ) ) REPRESENTATION_CONTEXT ( 'NONE', 'WORKASPACE' ) );
#140 = DIRECTION ( 'NONE',  ( -0.0000000000000000000, -0.0000000000000000000, -1.000000000000000000 ) ) ;
#141 = EDGE_CURVE ( 'NONE', #30, #134, #131, .T. ) ;
#142 =( CONVERSION_BASED_UNIT ( 'INCH', #44 ) LENGTH_UNIT ( ) NAMED_UNIT ( #144 ) );
#143 = DIRECTION ( 'NONE',  ( 0.0000000000000000000, 0.0000000000000000000, 1.000000000000000000 ) ) ;
#144 = DIMENSIONAL_EXPONENTS ( 1.000000000000000000, 0.0000000000000000000, 0.0000000000000000000, 0.0000000000000000000, 0.0000000000000000000, 0.0000000000000000000, 0.0000000000000000000 ) ;
#145 = AXIS2_PLACEMENT_3D ( 'NONE', #89, #17, #103 ) ;
#146 = PRESENTATION_STYLE_ASSIGNMENT (( #23 ) ) ;
#147 = DIRECTION ( 'NONE',  ( -0.0000000000000000000, -0.0000000000000000000, -1.000000000000000000 ) ) ;
#148 = CARTESIAN_POINT ( 'NONE',  ( 0.2497500000000000000, 3.058555380870514900E-017, -18.00000000000000000 ) ) ;
#149 = FACE_OUTER_BOUND ( 'NONE', #94, .T. ) ;
ENDSEC;
END-ISO-10303-21;
