ISO-10303-21;
HEADER;
FILE_DESCRIPTION (( 'STEP AP214' ),
    '1' );
FILE_NAME ('LPCS12-12.step',
    '2017-08-09T17:36:29',
    ( '' ),
    ( '' ),
    'SwSTEP 2.0',
    'SolidWorks 2017',
    '' );
FILE_SCHEMA (( 'AUTOMOTIVE_DESIGN' ));
ENDSEC;

DATA;
#1 = CARTESIAN_POINT ( 'NONE',  ( -0.3747500000000000300, 0.0000000000000000000, -6.000000000000000900 ) ) ;
#2 = CARTESIAN_POINT ( 'NONE',  ( 0.0000000000000000000, 0.0000000000000000000, 6.000000000000000900 ) ) ;
#3 = AXIS2_PLACEMENT_3D ( 'NONE', #82, #40, #105 ) ;
#4 = VECTOR ( 'NONE', #110, 39.37007874015748100 ) ;
#5 = DIRECTION ( 'NONE',  ( 0.0000000000000000000, 0.0000000000000000000, 1.000000000000000000 ) ) ;
#6 = PRESENTATION_STYLE_ASSIGNMENT (( #127 ) ) ;
#7 = PRODUCT_DEFINITION_SHAPE ( 'NONE', 'NONE',  #128 ) ;
#8 =( GEOMETRIC_REPRESENTATION_CONTEXT ( 3 ) GLOBAL_UNCERTAINTY_ASSIGNED_CONTEXT ( ( #67 ) ) GLOBAL_UNIT_ASSIGNED_CONTEXT ( ( #138, #70, #149 ) ) REPRESENTATION_CONTEXT ( 'NONE', 'WORKASPACE' ) );
#9 = UNCERTAINTY_MEASURE_WITH_UNIT (LENGTH_MEASURE( 1.000000000000000100E-005 ), #54, 'distance_accuracy_value', 'NONE');
#10 = LINE ( 'NONE', #28, #129 ) ;
#11 =( NAMED_UNIT ( * ) SI_UNIT ( $, .STERADIAN. ) SOLID_ANGLE_UNIT ( ) );
#12 = DIRECTION ( 'NONE',  ( 0.0000000000000000000, 0.0000000000000000000, 1.000000000000000000 ) ) ;
#13 = EDGE_CURVE ( 'NONE', #14, #135, #72, .T. ) ;
#14 = VERTEX_POINT ( 'NONE', #139 ) ;
#15 = LENGTH_MEASURE_WITH_UNIT ( LENGTH_MEASURE( 0.02539999999999999900 ), #69 );
#16 = MECHANICAL_DESIGN_GEOMETRIC_PRESENTATION_REPRESENTATION (  '', ( #36 ), #8 ) ;
#17 = CARTESIAN_POINT ( 'NONE',  ( 0.0000000000000000000, 0.0000000000000000000, 6.000000000000000900 ) ) ;
#18 = ORIENTED_EDGE ( 'NONE', *, *, #58, .T. ) ;
#19 = CARTESIAN_POINT ( 'NONE',  ( 0.0000000000000000000, 0.0000000000000000000, -6.000000000000000900 ) ) ;
#20 = FILL_AREA_STYLE_COLOUR ( '', #98 ) ;
#21 = EDGE_LOOP ( 'NONE', ( #106, #118, #57, #18 ) ) ;
#22 = EDGE_CURVE ( 'NONE', #14, #83, #10, .T. ) ;
#23 = FILL_AREA_STYLE_COLOUR ( '', #141 ) ;
#24 = APPLICATION_PROTOCOL_DEFINITION ( 'draft international standard', 'automotive_design', 1998, #38 ) ;
#25 = DIMENSIONAL_EXPONENTS ( 1.000000000000000000, 0.0000000000000000000, 0.0000000000000000000, 0.0000000000000000000, 0.0000000000000000000, 0.0000000000000000000, 0.0000000000000000000 ) ;
#26 = PRODUCT_CONTEXT ( 'NONE', #38, 'mechanical' ) ;
#27 = PRESENTATION_LAYER_ASSIGNMENT (  '', '', ( #36 ) ) ;
#28 = CARTESIAN_POINT ( 'NONE',  ( -0.3747500000000000300, 0.0000000000000000000, 6.000000000000000900 ) ) ;
#29 = CLOSED_SHELL ( 'NONE', ( #137, #92, #81, #37 ) ) ;
#30 = DIRECTION ( 'NONE',  ( 0.0000000000000000000, 0.0000000000000000000, 1.000000000000000000 ) ) ;
#31 = PRESENTATION_STYLE_ASSIGNMENT (( #112 ) ) ;
#32 = EDGE_CURVE ( 'NONE', #78, #83, #45, .T. ) ;
#33 = PRODUCT ( 'LPCS12-12', 'LPCS12-12', '', ( #26 ) ) ;
#34 = DIRECTION ( 'NONE',  ( 1.000000000000000000, 0.0000000000000000000, -0.0000000000000000000 ) ) ;
#35 = SURFACE_SIDE_STYLE ('',( #126 ) ) ;
#36 = STYLED_ITEM ( 'NONE', ( #6 ), #94 ) ;
#37 = ADVANCED_FACE ( 'NONE', ( #102 ), #117, .F. ) ;
#38 = APPLICATION_CONTEXT ( 'automotive_design' ) ;
#39 = APPLICATION_PROTOCOL_DEFINITION ( 'draft international standard', 'automotive_design', 1998, #104 ) ;
#40 = DIRECTION ( 'NONE',  ( 0.0000000000000000000, 0.0000000000000000000, 1.000000000000000000 ) ) ;
#41 = EDGE_CURVE ( 'NONE', #135, #14, #68, .T. ) ;
#42 = LINE ( 'NONE', #46, #4 ) ;
#43 = SURFACE_STYLE_FILL_AREA ( #116 ) ;
#44 = AXIS2_PLACEMENT_3D ( 'NONE', #2, #103, #115 ) ;
#45 = CIRCLE ( 'NONE', #147, 0.3747500000000000300 ) ;
#46 = CARTESIAN_POINT ( 'NONE',  ( 0.3747500000000000300, 4.589363879804705500E-017, 6.000000000000000900 ) ) ;
#47 = EDGE_CURVE ( 'NONE', #135, #78, #42, .T. ) ;
#48 = ORIENTED_EDGE ( 'NONE', *, *, #41, .F. ) ;
#49 = CARTESIAN_POINT ( 'NONE',  ( 0.0000000000000000000, 0.0000000000000000000, 0.0000000000000000000 ) ) ;
#50 = SURFACE_SIDE_STYLE ('',( #43 ) ) ;
#51 = AXIS2_PLACEMENT_3D ( 'NONE', #65, #74, #131 ) ;
#52 = ORIENTED_EDGE ( 'NONE', *, *, #58, .F. ) ;
#53 = CYLINDRICAL_SURFACE ( 'NONE', #51, 0.3747500000000000300 ) ;
#54 =( CONVERSION_BASED_UNIT ( 'INCH', #91 ) LENGTH_UNIT ( ) NAMED_UNIT ( #143 ) );
#55 = DIRECTION ( 'NONE',  ( 1.000000000000000000, 0.0000000000000000000, -0.0000000000000000000 ) ) ;
#56 = MANIFOLD_SOLID_BREP ( 'Boss-Extrude1', #29 ) ;
#57 = ORIENTED_EDGE ( 'NONE', *, *, #22, .T. ) ;
#58 = EDGE_CURVE ( 'NONE', #83, #78, #59, .T. ) ;
#59 = CIRCLE ( 'NONE', #86, 0.3747500000000000300 ) ;
#60 = DIMENSIONAL_EXPONENTS ( 1.000000000000000000, 0.0000000000000000000, 0.0000000000000000000, 0.0000000000000000000, 0.0000000000000000000, 0.0000000000000000000, 0.0000000000000000000 ) ;
#61 = ORIENTED_EDGE ( 'NONE', *, *, #47, .T. ) ;
#62 =( LENGTH_UNIT ( ) NAMED_UNIT ( * ) SI_UNIT ( $, .METRE. ) );
#63 =( NAMED_UNIT ( * ) SI_UNIT ( $, .STERADIAN. ) SOLID_ANGLE_UNIT ( ) );
#64 = AXIS2_PLACEMENT_3D ( 'NONE', #17, #123, #55 ) ;
#65 = CARTESIAN_POINT ( 'NONE',  ( 0.0000000000000000000, 0.0000000000000000000, 6.000000000000000900 ) ) ;
#66 = CARTESIAN_POINT ( 'NONE',  ( 0.0000000000000000000, 0.0000000000000000000, 6.000000000000000900 ) ) ;
#67 = UNCERTAINTY_MEASURE_WITH_UNIT (LENGTH_MEASURE( 1.000000000000000100E-005 ), #138, 'distance_accuracy_value', 'NONE');
#68 = CIRCLE ( 'NONE', #132, 0.3747500000000000300 ) ;
#69 =( LENGTH_UNIT ( ) NAMED_UNIT ( * ) SI_UNIT ( $, .METRE. ) );
#70 =( NAMED_UNIT ( * ) PLANE_ANGLE_UNIT ( ) SI_UNIT ( $, .RADIAN. ) );
#71 =( GEOMETRIC_REPRESENTATION_CONTEXT ( 3 ) GLOBAL_UNCERTAINTY_ASSIGNED_CONTEXT ( ( #122 ) ) GLOBAL_UNIT_ASSIGNED_CONTEXT ( ( #148, #80, #11 ) ) REPRESENTATION_CONTEXT ( 'NONE', 'WORKASPACE' ) );
#72 = CIRCLE ( 'NONE', #3, 0.3747500000000000300 ) ;
#73 = PRODUCT_DEFINITION_CONTEXT ( 'detailed design', #104, 'design' ) ;
#74 = DIRECTION ( 'NONE',  ( -0.0000000000000000000, -0.0000000000000000000, -1.000000000000000000 ) ) ;
#75 = EDGE_LOOP ( 'NONE', ( #144, #113 ) ) ;
#76 = CARTESIAN_POINT ( 'NONE',  ( 0.0000000000000000000, 0.0000000000000000000, -6.000000000000000900 ) ) ;
#77 = DIRECTION ( 'NONE',  ( 1.000000000000000000, 0.0000000000000000000, 0.0000000000000000000 ) ) ;
#78 = VERTEX_POINT ( 'NONE', #85 ) ;
#79 = FACE_OUTER_BOUND ( 'NONE', #142, .T. ) ;
#80 =( NAMED_UNIT ( * ) PLANE_ANGLE_UNIT ( ) SI_UNIT ( $, .RADIAN. ) );
#81 = ADVANCED_FACE ( 'NONE', ( #84 ), #90, .T. ) ;
#82 = CARTESIAN_POINT ( 'NONE',  ( 0.0000000000000000000, 0.0000000000000000000, 6.000000000000000900 ) ) ;
#83 = VERTEX_POINT ( 'NONE', #1 ) ;
#84 = FACE_OUTER_BOUND ( 'NONE', #75, .T. ) ;
#85 = CARTESIAN_POINT ( 'NONE',  ( 0.3747500000000000300, 4.589363879804705500E-017, -6.000000000000000900 ) ) ;
#86 = AXIS2_PLACEMENT_3D ( 'NONE', #97, #30, #107 ) ;
#87 = ORIENTED_EDGE ( 'NONE', *, *, #32, .T. ) ;
#88 = CARTESIAN_POINT ( 'NONE',  ( 0.3747500000000000300, 4.589363879804705500E-017, 6.000000000000000900 ) ) ;
#89 = DIRECTION ( 'NONE',  ( 1.000000000000000000, 0.0000000000000000000, 0.0000000000000000000 ) ) ;
#90 = PLANE ( 'NONE',  #64 ) ;
#91 = LENGTH_MEASURE_WITH_UNIT ( LENGTH_MEASURE( 0.02539999999999999900 ), #95 );
#92 = ADVANCED_FACE ( 'NONE', ( #114 ), #53, .T. ) ;
#93 = DIRECTION ( 'NONE',  ( 1.000000000000000000, 0.0000000000000000000, 0.0000000000000000000 ) ) ;
#94 = ADVANCED_BREP_SHAPE_REPRESENTATION ( 'LPCS12-12', ( #56, #134 ), #71 ) ;
#95 =( LENGTH_UNIT ( ) NAMED_UNIT ( * ) SI_UNIT ( $, .METRE. ) );
#96 =( GEOMETRIC_REPRESENTATION_CONTEXT ( 3 ) GLOBAL_UNCERTAINTY_ASSIGNED_CONTEXT ( ( #9 ) ) GLOBAL_UNIT_ASSIGNED_CONTEXT ( ( #54, #130, #63 ) ) REPRESENTATION_CONTEXT ( 'NONE', 'WORKASPACE' ) );
#97 = CARTESIAN_POINT ( 'NONE',  ( 0.0000000000000000000, 0.0000000000000000000, -6.000000000000000900 ) ) ;
#98 = COLOUR_RGB ( '',0.7921568627450980000, 0.8196078431372548800, 0.9333333333333333500 ) ;
#99 = DIRECTION ( 'NONE',  ( 0.0000000000000000000, 0.0000000000000000000, 1.000000000000000000 ) ) ;
#100 = FILL_AREA_STYLE ('',( #20 ) ) ;
#101 = MECHANICAL_DESIGN_GEOMETRIC_PRESENTATION_REPRESENTATION (  '', ( #120 ), #96 ) ;
#102 = FACE_OUTER_BOUND ( 'NONE', #140, .T. ) ;
#103 = DIRECTION ( 'NONE',  ( -0.0000000000000000000, -0.0000000000000000000, -1.000000000000000000 ) ) ;
#104 = APPLICATION_CONTEXT ( 'automotive_design' ) ;
#105 = DIRECTION ( 'NONE',  ( 1.000000000000000000, 0.0000000000000000000, 0.0000000000000000000 ) ) ;
#106 = ORIENTED_EDGE ( 'NONE', *, *, #47, .F. ) ;
#107 = DIRECTION ( 'NONE',  ( 1.000000000000000000, 0.0000000000000000000, 0.0000000000000000000 ) ) ;
#108 = PRESENTATION_LAYER_ASSIGNMENT (  '', '', ( #120 ) ) ;
#109 = ORIENTED_EDGE ( 'NONE', *, *, #22, .F. ) ;
#110 = DIRECTION ( 'NONE',  ( -0.0000000000000000000, -0.0000000000000000000, -1.000000000000000000 ) ) ;
#111 = PRODUCT_RELATED_PRODUCT_CATEGORY ( 'part', '', ( #33 ) ) ;
#112 = SURFACE_STYLE_USAGE ( .BOTH. , #35 ) ;
#113 = ORIENTED_EDGE ( 'NONE', *, *, #41, .T. ) ;
#114 = FACE_OUTER_BOUND ( 'NONE', #21, .T. ) ;
#115 = DIRECTION ( 'NONE',  ( -1.000000000000000000, 0.0000000000000000000, 0.0000000000000000000 ) ) ;
#116 = FILL_AREA_STYLE ('',( #23 ) ) ;
#117 = PLANE ( 'NONE',  #125 ) ;
#118 = ORIENTED_EDGE ( 'NONE', *, *, #13, .F. ) ;
#119 = DIRECTION ( 'NONE',  ( -0.0000000000000000000, -0.0000000000000000000, -1.000000000000000000 ) ) ;
#120 = STYLED_ITEM ( 'NONE', ( #31 ), #56 ) ;
#121 = PRODUCT_DEFINITION_FORMATION_WITH_SPECIFIED_SOURCE ( 'ANY', '', #33, .NOT_KNOWN. ) ;
#122 = UNCERTAINTY_MEASURE_WITH_UNIT (LENGTH_MEASURE( 1.000000000000000100E-005 ), #148, 'distance_accuracy_value', 'NONE');
#123 = DIRECTION ( 'NONE',  ( 0.0000000000000000000, 0.0000000000000000000, 1.000000000000000000 ) ) ;
#124 = LENGTH_MEASURE_WITH_UNIT ( LENGTH_MEASURE( 0.02539999999999999900 ), #62 );
#125 = AXIS2_PLACEMENT_3D ( 'NONE', #19, #99, #34 ) ;
#126 = SURFACE_STYLE_FILL_AREA ( #100 ) ;
#127 = SURFACE_STYLE_USAGE ( .BOTH. , #50 ) ;
#128 = PRODUCT_DEFINITION ( 'UNKNOWN', '', #121, #73 ) ;
#129 = VECTOR ( 'NONE', #119, 39.37007874015748100 ) ;
#130 =( NAMED_UNIT ( * ) PLANE_ANGLE_UNIT ( ) SI_UNIT ( $, .RADIAN. ) );
#131 = DIRECTION ( 'NONE',  ( -1.000000000000000000, 0.0000000000000000000, 0.0000000000000000000 ) ) ;
#132 = AXIS2_PLACEMENT_3D ( 'NONE', #66, #145, #77 ) ;
#133 = ORIENTED_EDGE ( 'NONE', *, *, #32, .F. ) ;
#134 = AXIS2_PLACEMENT_3D ( 'NONE', #49, #12, #93 ) ;
#135 = VERTEX_POINT ( 'NONE', #88 ) ;
#136 = CYLINDRICAL_SURFACE ( 'NONE', #44, 0.3747500000000000300 ) ;
#137 = ADVANCED_FACE ( 'NONE', ( #79 ), #136, .T. ) ;
#138 =( CONVERSION_BASED_UNIT ( 'INCH', #124 ) LENGTH_UNIT ( ) NAMED_UNIT ( #60 ) );
#139 = CARTESIAN_POINT ( 'NONE',  ( -0.3747500000000000300, 0.0000000000000000000, 6.000000000000000900 ) ) ;
#140 = EDGE_LOOP ( 'NONE', ( #52, #133 ) ) ;
#141 = COLOUR_RGB ( '',0.7921568627450980000, 0.8196078431372548800, 0.9333333333333333500 ) ;
#142 = EDGE_LOOP ( 'NONE', ( #48, #61, #87, #109 ) ) ;
#143 = DIMENSIONAL_EXPONENTS ( 1.000000000000000000, 0.0000000000000000000, 0.0000000000000000000, 0.0000000000000000000, 0.0000000000000000000, 0.0000000000000000000, 0.0000000000000000000 ) ;
#144 = ORIENTED_EDGE ( 'NONE', *, *, #13, .T. ) ;
#145 = DIRECTION ( 'NONE',  ( 0.0000000000000000000, 0.0000000000000000000, 1.000000000000000000 ) ) ;
#146 = SHAPE_DEFINITION_REPRESENTATION ( #7, #94 ) ;
#147 = AXIS2_PLACEMENT_3D ( 'NONE', #76, #5, #89 ) ;
#148 =( CONVERSION_BASED_UNIT ( 'INCH', #15 ) LENGTH_UNIT ( ) NAMED_UNIT ( #25 ) );
#149 =( NAMED_UNIT ( * ) SI_UNIT ( $, .STERADIAN. ) SOLID_ANGLE_UNIT ( ) );
ENDSEC;
END-ISO-10303-21;
