ISO-10303-21;
HEADER;
FILE_DESCRIPTION (( 'STEP AP214' ),
    '1' );
FILE_NAME ('LPCS12-24.step',
    '2017-08-09T17:36:45',
    ( '' ),
    ( '' ),
    'SwSTEP 2.0',
    'SolidWorks 2017',
    '' );
FILE_SCHEMA (( 'AUTOMOTIVE_DESIGN' ));
ENDSEC;

DATA;
#1 = SURFACE_STYLE_FILL_AREA ( #57 ) ;
#2 =( GEOMETRIC_REPRESENTATION_CONTEXT ( 3 ) GLOBAL_UNCERTAINTY_ASSIGNED_CONTEXT ( ( #70 ) ) GLOBAL_UNIT_ASSIGNED_CONTEXT ( ( #120, #49, #134 ) ) REPRESENTATION_CONTEXT ( 'NONE', 'WORKASPACE' ) );
#3 = ORIENTED_EDGE ( 'NONE', *, *, #23, .F. ) ;
#4 = CIRCLE ( 'NONE', #102, 0.3747500000000000300 ) ;
#5 = CIRCLE ( 'NONE', #140, 0.3747500000000000300 ) ;
#6 = DIRECTION ( 'NONE',  ( 0.0000000000000000000, 0.0000000000000000000, 1.000000000000000000 ) ) ;
#7 = VERTEX_POINT ( 'NONE', #53 ) ;
#8 =( LENGTH_UNIT ( ) NAMED_UNIT ( * ) SI_UNIT ( $, .METRE. ) );
#9 = EDGE_CURVE ( 'NONE', #27, #7, #5, .T. ) ;
#10 = CARTESIAN_POINT ( 'NONE',  ( 0.0000000000000000000, 0.0000000000000000000, 0.0000000000000000000 ) ) ;
#11 = APPLICATION_CONTEXT ( 'automotive_design' ) ;
#12 = APPLICATION_PROTOCOL_DEFINITION ( 'draft international standard', 'automotive_design', 1998, #72 ) ;
#13 = EDGE_CURVE ( 'NONE', #27, #65, #127, .T. ) ;
#14 = AXIS2_PLACEMENT_3D ( 'NONE', #104, #92, #41 ) ;
#15 =( NAMED_UNIT ( * ) PLANE_ANGLE_UNIT ( ) SI_UNIT ( $, .RADIAN. ) );
#16 = SURFACE_SIDE_STYLE ('',( #97 ) ) ;
#17 = ADVANCED_FACE ( 'NONE', ( #91 ), #135, .F. ) ;
#18 = EDGE_CURVE ( 'NONE', #115, #65, #118, .T. ) ;
#19 = AXIS2_PLACEMENT_3D ( 'NONE', #60, #117, #133 ) ;
#20 = EDGE_LOOP ( 'NONE', ( #58, #24, #56, #89 ) ) ;
#21 = DIMENSIONAL_EXPONENTS ( 1.000000000000000000, 0.0000000000000000000, 0.0000000000000000000, 0.0000000000000000000, 0.0000000000000000000, 0.0000000000000000000, 0.0000000000000000000 ) ;
#22 = AXIS2_PLACEMENT_3D ( 'NONE', #67, #6, #78 ) ;
#23 = EDGE_CURVE ( 'NONE', #7, #27, #4, .T. ) ;
#24 = ORIENTED_EDGE ( 'NONE', *, *, #9, .F. ) ;
#25 = FACE_OUTER_BOUND ( 'NONE', #81, .T. ) ;
#26 = CIRCLE ( 'NONE', #35, 0.3747500000000000300 ) ;
#27 = VERTEX_POINT ( 'NONE', #84 ) ;
#28 = FILL_AREA_STYLE_COLOUR ( '', #131 ) ;
#29 = DIRECTION ( 'NONE',  ( 1.000000000000000000, 0.0000000000000000000, 0.0000000000000000000 ) ) ;
#30 =( LENGTH_UNIT ( ) NAMED_UNIT ( * ) SI_UNIT ( $, .METRE. ) );
#31 = DIRECTION ( 'NONE',  ( 0.0000000000000000000, 0.0000000000000000000, 1.000000000000000000 ) ) ;
#32 = ADVANCED_FACE ( 'NONE', ( #59 ), #75, .T. ) ;
#33 = STYLED_ITEM ( 'NONE', ( #66 ), #99 ) ;
#34 = EDGE_LOOP ( 'NONE', ( #54, #52 ) ) ;
#35 = AXIS2_PLACEMENT_3D ( 'NONE', #114, #47, #132 ) ;
#36 = VECTOR ( 'NONE', #121, 39.37007874015748100 ) ;
#37 = ORIENTED_EDGE ( 'NONE', *, *, #13, .F. ) ;
#38 = EDGE_CURVE ( 'NONE', #65, #115, #26, .T. ) ;
#39 = PRESENTATION_LAYER_ASSIGNMENT (  '', '', ( #33 ) ) ;
#40 = FILL_AREA_STYLE_COLOUR ( '', #55 ) ;
#41 = DIRECTION ( 'NONE',  ( -1.000000000000000000, 0.0000000000000000000, 0.0000000000000000000 ) ) ;
#42 =( LENGTH_UNIT ( ) NAMED_UNIT ( * ) SI_UNIT ( $, .METRE. ) );
#43 =( NAMED_UNIT ( * ) PLANE_ANGLE_UNIT ( ) SI_UNIT ( $, .RADIAN. ) );
#44 = CARTESIAN_POINT ( 'NONE',  ( 0.3747500000000000300, 4.589363879804705500E-017, -12.00000000000000200 ) ) ;
#45 = MECHANICAL_DESIGN_GEOMETRIC_PRESENTATION_REPRESENTATION (  '', ( #33 ), #51 ) ;
#46 = UNCERTAINTY_MEASURE_WITH_UNIT (LENGTH_MEASURE( 1.000000000000000100E-005 ), #80, 'distance_accuracy_value', 'NONE');
#47 = DIRECTION ( 'NONE',  ( 0.0000000000000000000, 0.0000000000000000000, 1.000000000000000000 ) ) ;
#48 = DIRECTION ( 'NONE',  ( -0.0000000000000000000, -0.0000000000000000000, -1.000000000000000000 ) ) ;
#49 =( NAMED_UNIT ( * ) PLANE_ANGLE_UNIT ( ) SI_UNIT ( $, .RADIAN. ) );
#50 = CARTESIAN_POINT ( 'NONE',  ( 0.0000000000000000000, 0.0000000000000000000, 12.00000000000000200 ) ) ;
#51 =( GEOMETRIC_REPRESENTATION_CONTEXT ( 3 ) GLOBAL_UNCERTAINTY_ASSIGNED_CONTEXT ( ( #130 ) ) GLOBAL_UNIT_ASSIGNED_CONTEXT ( ( #107, #43, #122 ) ) REPRESENTATION_CONTEXT ( 'NONE', 'WORKASPACE' ) );
#52 = ORIENTED_EDGE ( 'NONE', *, *, #23, .T. ) ;
#53 = CARTESIAN_POINT ( 'NONE',  ( 0.3747500000000000300, 4.589363879804705500E-017, 12.00000000000000200 ) ) ;
#54 = ORIENTED_EDGE ( 'NONE', *, *, #9, .T. ) ;
#55 = COLOUR_RGB ( '',0.7921568627450980000, 0.8196078431372548800, 0.9333333333333333500 ) ;
#56 = ORIENTED_EDGE ( 'NONE', *, *, #13, .T. ) ;
#57 = FILL_AREA_STYLE ('',( #40 ) ) ;
#58 = ORIENTED_EDGE ( 'NONE', *, *, #146, .F. ) ;
#59 = FACE_OUTER_BOUND ( 'NONE', #34, .T. ) ;
#60 = CARTESIAN_POINT ( 'NONE',  ( 0.0000000000000000000, 0.0000000000000000000, 12.00000000000000200 ) ) ;
#61 = PRODUCT_DEFINITION_CONTEXT ( 'detailed design', #72, 'design' ) ;
#62 = CARTESIAN_POINT ( 'NONE',  ( 0.0000000000000000000, 0.0000000000000000000, -12.00000000000000200 ) ) ;
#63 = DIRECTION ( 'NONE',  ( 1.000000000000000000, 0.0000000000000000000, 0.0000000000000000000 ) ) ;
#64 = MANIFOLD_SOLID_BREP ( 'Boss-Extrude1', #119 ) ;
#65 = VERTEX_POINT ( 'NONE', #87 ) ;
#66 = PRESENTATION_STYLE_ASSIGNMENT (( #95 ) ) ;
#67 = CARTESIAN_POINT ( 'NONE',  ( 0.0000000000000000000, 0.0000000000000000000, 12.00000000000000200 ) ) ;
#68 = SURFACE_STYLE_USAGE ( .BOTH. , #142 ) ;
#69 = CARTESIAN_POINT ( 'NONE',  ( 0.3747500000000000300, 4.589363879804705500E-017, 12.00000000000000200 ) ) ;
#70 = UNCERTAINTY_MEASURE_WITH_UNIT (LENGTH_MEASURE( 1.000000000000000100E-005 ), #120, 'distance_accuracy_value', 'NONE');
#71 = DIRECTION ( 'NONE',  ( 1.000000000000000000, 0.0000000000000000000, -0.0000000000000000000 ) ) ;
#72 = APPLICATION_CONTEXT ( 'automotive_design' ) ;
#73 = ADVANCED_FACE ( 'NONE', ( #116 ), #149, .T. ) ;
#74 = AXIS2_PLACEMENT_3D ( 'NONE', #10, #136, #63 ) ;
#75 = PLANE ( 'NONE',  #22 ) ;
#76 = LENGTH_MEASURE_WITH_UNIT ( LENGTH_MEASURE( 0.02539999999999999900 ), #30 );
#77 = PRODUCT_DEFINITION_SHAPE ( 'NONE', 'NONE',  #79 ) ;
#78 = DIRECTION ( 'NONE',  ( 1.000000000000000000, 0.0000000000000000000, -0.0000000000000000000 ) ) ;
#79 = PRODUCT_DEFINITION ( 'UNKNOWN', '', #90, #61 ) ;
#80 =( CONVERSION_BASED_UNIT ( 'INCH', #109 ) LENGTH_UNIT ( ) NAMED_UNIT ( #21 ) );
#81 = EDGE_LOOP ( 'NONE', ( #3, #111, #147, #37 ) ) ;
#82 = CYLINDRICAL_SURFACE ( 'NONE', #19, 0.3747500000000000300 ) ;
#83 = FILL_AREA_STYLE ('',( #28 ) ) ;
#84 = CARTESIAN_POINT ( 'NONE',  ( -0.3747500000000000300, 0.0000000000000000000, 12.00000000000000200 ) ) ;
#85 = ORIENTED_EDGE ( 'NONE', *, *, #18, .F. ) ;
#86 = VECTOR ( 'NONE', #48, 39.37007874015748100 ) ;
#87 = CARTESIAN_POINT ( 'NONE',  ( -0.3747500000000000300, 0.0000000000000000000, -12.00000000000000200 ) ) ;
#88 = PRESENTATION_STYLE_ASSIGNMENT (( #68 ) ) ;
#89 = ORIENTED_EDGE ( 'NONE', *, *, #38, .T. ) ;
#90 = PRODUCT_DEFINITION_FORMATION_WITH_SPECIFIED_SOURCE ( 'ANY', '', #103, .NOT_KNOWN. ) ;
#91 = FACE_OUTER_BOUND ( 'NONE', #105, .T. ) ;
#92 = DIRECTION ( 'NONE',  ( -0.0000000000000000000, -0.0000000000000000000, -1.000000000000000000 ) ) ;
#93 =( NAMED_UNIT ( * ) SI_UNIT ( $, .STERADIAN. ) SOLID_ANGLE_UNIT ( ) );
#94 = DIRECTION ( 'NONE',  ( 0.0000000000000000000, 0.0000000000000000000, 1.000000000000000000 ) ) ;
#95 = SURFACE_STYLE_USAGE ( .BOTH. , #16 ) ;
#96 = CARTESIAN_POINT ( 'NONE',  ( 0.0000000000000000000, 0.0000000000000000000, -12.00000000000000200 ) ) ;
#97 = SURFACE_STYLE_FILL_AREA ( #83 ) ;
#98 = PRODUCT_RELATED_PRODUCT_CATEGORY ( 'part', '', ( #103 ) ) ;
#99 = ADVANCED_BREP_SHAPE_REPRESENTATION ( 'LPCS12-24', ( #64, #74 ), #2 ) ;
#100 = SHAPE_DEFINITION_REPRESENTATION ( #77, #99 ) ;
#101 = LENGTH_MEASURE_WITH_UNIT ( LENGTH_MEASURE( 0.02539999999999999900 ), #42 );
#102 = AXIS2_PLACEMENT_3D ( 'NONE', #50, #138, #139 ) ;
#103 = PRODUCT ( 'LPCS12-24', 'LPCS12-24', '', ( #145 ) ) ;
#104 = CARTESIAN_POINT ( 'NONE',  ( 0.0000000000000000000, 0.0000000000000000000, 12.00000000000000200 ) ) ;
#105 = EDGE_LOOP ( 'NONE', ( #125, #85 ) ) ;
#106 = CARTESIAN_POINT ( 'NONE',  ( -0.3747500000000000300, 0.0000000000000000000, 12.00000000000000200 ) ) ;
#107 =( CONVERSION_BASED_UNIT ( 'INCH', #76 ) LENGTH_UNIT ( ) NAMED_UNIT ( #129 ) );
#108 = DIRECTION ( 'NONE',  ( 1.000000000000000000, 0.0000000000000000000, 0.0000000000000000000 ) ) ;
#109 = LENGTH_MEASURE_WITH_UNIT ( LENGTH_MEASURE( 0.02539999999999999900 ), #8 );
#110 = AXIS2_PLACEMENT_3D ( 'NONE', #62, #144, #71 ) ;
#111 = ORIENTED_EDGE ( 'NONE', *, *, #146, .T. ) ;
#112 = LINE ( 'NONE', #69, #86 ) ;
#113 = STYLED_ITEM ( 'NONE', ( #88 ), #64 ) ;
#114 = CARTESIAN_POINT ( 'NONE',  ( 0.0000000000000000000, 0.0000000000000000000, -12.00000000000000200 ) ) ;
#115 = VERTEX_POINT ( 'NONE', #44 ) ;
#116 = FACE_OUTER_BOUND ( 'NONE', #20, .T. ) ;
#117 = DIRECTION ( 'NONE',  ( -0.0000000000000000000, -0.0000000000000000000, -1.000000000000000000 ) ) ;
#118 = CIRCLE ( 'NONE', #124, 0.3747500000000000300 ) ;
#119 = CLOSED_SHELL ( 'NONE', ( #123, #73, #32, #17 ) ) ;
#120 =( CONVERSION_BASED_UNIT ( 'INCH', #101 ) LENGTH_UNIT ( ) NAMED_UNIT ( #126 ) );
#121 = DIRECTION ( 'NONE',  ( -0.0000000000000000000, -0.0000000000000000000, -1.000000000000000000 ) ) ;
#122 =( NAMED_UNIT ( * ) SI_UNIT ( $, .STERADIAN. ) SOLID_ANGLE_UNIT ( ) );
#123 = ADVANCED_FACE ( 'NONE', ( #25 ), #82, .T. ) ;
#124 = AXIS2_PLACEMENT_3D ( 'NONE', #96, #31, #108 ) ;
#125 = ORIENTED_EDGE ( 'NONE', *, *, #38, .F. ) ;
#126 = DIMENSIONAL_EXPONENTS ( 1.000000000000000000, 0.0000000000000000000, 0.0000000000000000000, 0.0000000000000000000, 0.0000000000000000000, 0.0000000000000000000, 0.0000000000000000000 ) ;
#127 = LINE ( 'NONE', #106, #36 ) ;
#128 = PRESENTATION_LAYER_ASSIGNMENT (  '', '', ( #113 ) ) ;
#129 = DIMENSIONAL_EXPONENTS ( 1.000000000000000000, 0.0000000000000000000, 0.0000000000000000000, 0.0000000000000000000, 0.0000000000000000000, 0.0000000000000000000, 0.0000000000000000000 ) ;
#130 = UNCERTAINTY_MEASURE_WITH_UNIT (LENGTH_MEASURE( 1.000000000000000100E-005 ), #107, 'distance_accuracy_value', 'NONE');
#131 = COLOUR_RGB ( '',0.7921568627450980000, 0.8196078431372548800, 0.9333333333333333500 ) ;
#132 = DIRECTION ( 'NONE',  ( 1.000000000000000000, 0.0000000000000000000, 0.0000000000000000000 ) ) ;
#133 = DIRECTION ( 'NONE',  ( -1.000000000000000000, 0.0000000000000000000, 0.0000000000000000000 ) ) ;
#134 =( NAMED_UNIT ( * ) SI_UNIT ( $, .STERADIAN. ) SOLID_ANGLE_UNIT ( ) );
#135 = PLANE ( 'NONE',  #110 ) ;
#136 = DIRECTION ( 'NONE',  ( 0.0000000000000000000, 0.0000000000000000000, 1.000000000000000000 ) ) ;
#137 = MECHANICAL_DESIGN_GEOMETRIC_PRESENTATION_REPRESENTATION (  '', ( #113 ), #141 ) ;
#138 = DIRECTION ( 'NONE',  ( 0.0000000000000000000, 0.0000000000000000000, 1.000000000000000000 ) ) ;
#139 = DIRECTION ( 'NONE',  ( 1.000000000000000000, 0.0000000000000000000, 0.0000000000000000000 ) ) ;
#140 = AXIS2_PLACEMENT_3D ( 'NONE', #148, #94, #29 ) ;
#141 =( GEOMETRIC_REPRESENTATION_CONTEXT ( 3 ) GLOBAL_UNCERTAINTY_ASSIGNED_CONTEXT ( ( #46 ) ) GLOBAL_UNIT_ASSIGNED_CONTEXT ( ( #80, #15, #93 ) ) REPRESENTATION_CONTEXT ( 'NONE', 'WORKASPACE' ) );
#142 = SURFACE_SIDE_STYLE ('',( #1 ) ) ;
#143 = APPLICATION_PROTOCOL_DEFINITION ( 'draft international standard', 'automotive_design', 1998, #11 ) ;
#144 = DIRECTION ( 'NONE',  ( 0.0000000000000000000, 0.0000000000000000000, 1.000000000000000000 ) ) ;
#145 = PRODUCT_CONTEXT ( 'NONE', #11, 'mechanical' ) ;
#146 = EDGE_CURVE ( 'NONE', #7, #115, #112, .T. ) ;
#147 = ORIENTED_EDGE ( 'NONE', *, *, #18, .T. ) ;
#148 = CARTESIAN_POINT ( 'NONE',  ( 0.0000000000000000000, 0.0000000000000000000, 12.00000000000000200 ) ) ;
#149 = CYLINDRICAL_SURFACE ( 'NONE', #14, 0.3747500000000000300 ) ;
ENDSEC;
END-ISO-10303-21;
