ISO-10303-21;
HEADER;
FILE_DESCRIPTION (( 'STEP AP214' ),
    '1' );
FILE_NAME ('LPCS16-12.step',
    '2017-08-09T17:37:21',
    ( '' ),
    ( '' ),
    'SwSTEP 2.0',
    'SolidWorks 2017',
    '' );
FILE_SCHEMA (( 'AUTOMOTIVE_DESIGN' ));
ENDSEC;

DATA;
#1 = DIRECTION ( 'NONE',  ( 0.0000000000000000000, 0.0000000000000000000, 1.000000000000000000 ) ) ;
#2 = SURFACE_STYLE_USAGE ( .BOTH. , #72 ) ;
#3 = CARTESIAN_POINT ( 'NONE',  ( 0.0000000000000000000, 0.0000000000000000000, -6.000000000000000900 ) ) ;
#4 = FACE_OUTER_BOUND ( 'NONE', #81, .T. ) ;
#5 = SURFACE_STYLE_USAGE ( .BOTH. , #77 ) ;
#6 = EDGE_CURVE ( 'NONE', #21, #78, #9, .T. ) ;
#7 = ADVANCED_FACE ( 'NONE', ( #138 ), #33, .T. ) ;
#8 =( GEOMETRIC_REPRESENTATION_CONTEXT ( 3 ) GLOBAL_UNCERTAINTY_ASSIGNED_CONTEXT ( ( #82 ) ) GLOBAL_UNIT_ASSIGNED_CONTEXT ( ( #28, #115, #39 ) ) REPRESENTATION_CONTEXT ( 'NONE', 'WORKASPACE' ) );
#9 = CIRCLE ( 'NONE', #121, 0.4997500000000000300 ) ;
#10 = LINE ( 'NONE', #75, #105 ) ;
#11 = DIRECTION ( 'NONE',  ( 1.000000000000000000, 0.0000000000000000000, 0.0000000000000000000 ) ) ;
#12 = CARTESIAN_POINT ( 'NONE',  ( 0.0000000000000000000, 0.0000000000000000000, -6.000000000000000900 ) ) ;
#13 =( CONVERSION_BASED_UNIT ( 'INCH', #30 ) LENGTH_UNIT ( ) NAMED_UNIT ( #43 ) );
#14 = EDGE_CURVE ( 'NONE', #147, #79, #68, .T. ) ;
#15 = FILL_AREA_STYLE_COLOUR ( '', #108 ) ;
#16 = DIRECTION ( 'NONE',  ( 1.000000000000000000, 0.0000000000000000000, 0.0000000000000000000 ) ) ;
#17 = AXIS2_PLACEMENT_3D ( 'NONE', #61, #36, #122 ) ;
#18 =( CONVERSION_BASED_UNIT ( 'INCH', #89 ) LENGTH_UNIT ( ) NAMED_UNIT ( #126 ) );
#19 = CLOSED_SHELL ( 'NONE', ( #117, #7, #55, #67 ) ) ;
#20 = ORIENTED_EDGE ( 'NONE', *, *, #149, .F. ) ;
#21 = VERTEX_POINT ( 'NONE', #95 ) ;
#22 = AXIS2_PLACEMENT_3D ( 'NONE', #27, #113, #37 ) ;
#23 = PLANE ( 'NONE',  #64 ) ;
#24 =( NAMED_UNIT ( * ) SI_UNIT ( $, .STERADIAN. ) SOLID_ANGLE_UNIT ( ) );
#25 = EDGE_LOOP ( 'NONE', ( #112, #92 ) ) ;
#26 = UNCERTAINTY_MEASURE_WITH_UNIT (LENGTH_MEASURE( 1.000000000000000100E-005 ), #18, 'distance_accuracy_value', 'NONE');
#27 = CARTESIAN_POINT ( 'NONE',  ( 0.0000000000000000000, 0.0000000000000000000, 6.000000000000000900 ) ) ;
#28 =( CONVERSION_BASED_UNIT ( 'INCH', #83 ) LENGTH_UNIT ( ) NAMED_UNIT ( #148 ) );
#29 =( NAMED_UNIT ( * ) SI_UNIT ( $, .STERADIAN. ) SOLID_ANGLE_UNIT ( ) );
#30 = LENGTH_MEASURE_WITH_UNIT ( LENGTH_MEASURE( 0.02539999999999999900 ), #87 );
#31 = AXIS2_PLACEMENT_3D ( 'NONE', #3, #90, #16 ) ;
#32 = PLANE ( 'NONE',  #80 ) ;
#33 = CYLINDRICAL_SURFACE ( 'NONE', #99, 0.4997500000000000300 ) ;
#34 = DIRECTION ( 'NONE',  ( 1.000000000000000000, 0.0000000000000000000, -0.0000000000000000000 ) ) ;
#35 = SURFACE_STYLE_FILL_AREA ( #146 ) ;
#36 = DIRECTION ( 'NONE',  ( -0.0000000000000000000, -0.0000000000000000000, -1.000000000000000000 ) ) ;
#37 = DIRECTION ( 'NONE',  ( 1.000000000000000000, 0.0000000000000000000, 0.0000000000000000000 ) ) ;
#38 = SURFACE_STYLE_FILL_AREA ( #109 ) ;
#39 =( NAMED_UNIT ( * ) SI_UNIT ( $, .STERADIAN. ) SOLID_ANGLE_UNIT ( ) );
#40 =( GEOMETRIC_REPRESENTATION_CONTEXT ( 3 ) GLOBAL_UNCERTAINTY_ASSIGNED_CONTEXT ( ( #111 ) ) GLOBAL_UNIT_ASSIGNED_CONTEXT ( ( #13, #100, #24 ) ) REPRESENTATION_CONTEXT ( 'NONE', 'WORKASPACE' ) );
#41 = DIRECTION ( 'NONE',  ( 0.0000000000000000000, 0.0000000000000000000, 1.000000000000000000 ) ) ;
#42 = CYLINDRICAL_SURFACE ( 'NONE', #17, 0.4997500000000000300 ) ;
#43 = DIMENSIONAL_EXPONENTS ( 1.000000000000000000, 0.0000000000000000000, 0.0000000000000000000, 0.0000000000000000000, 0.0000000000000000000, 0.0000000000000000000, 0.0000000000000000000 ) ;
#44 = PRODUCT ( 'LPCS16-12', 'LPCS16-12', '', ( #52 ) ) ;
#45 = MECHANICAL_DESIGN_GEOMETRIC_PRESENTATION_REPRESENTATION (  '', ( #71 ), #40 ) ;
#46 = ORIENTED_EDGE ( 'NONE', *, *, #6, .F. ) ;
#47 = DIRECTION ( 'NONE',  ( -0.0000000000000000000, -0.0000000000000000000, -1.000000000000000000 ) ) ;
#48 = PRODUCT_DEFINITION_SHAPE ( 'NONE', 'NONE',  #93 ) ;
#49 = EDGE_LOOP ( 'NONE', ( #116, #69, #57, #88 ) ) ;
#50 = CARTESIAN_POINT ( 'NONE',  ( 0.4997500000000000300, 6.120172378738897400E-017, 6.000000000000000900 ) ) ;
#51 = APPLICATION_PROTOCOL_DEFINITION ( 'draft international standard', 'automotive_design', 1998, #63 ) ;
#52 = PRODUCT_CONTEXT ( 'NONE', #63, 'mechanical' ) ;
#53 = ORIENTED_EDGE ( 'NONE', *, *, #128, .T. ) ;
#54 = ADVANCED_BREP_SHAPE_REPRESENTATION ( 'LPCS16-12', ( #94, #101 ), #8 ) ;
#55 = ADVANCED_FACE ( 'NONE', ( #103 ), #32, .T. ) ;
#56 = PRESENTATION_LAYER_ASSIGNMENT (  '', '', ( #71 ) ) ;
#57 = ORIENTED_EDGE ( 'NONE', *, *, #143, .T. ) ;
#58 = DIRECTION ( 'NONE',  ( 0.0000000000000000000, 0.0000000000000000000, 1.000000000000000000 ) ) ;
#59 = DIRECTION ( 'NONE',  ( -1.000000000000000000, 0.0000000000000000000, 0.0000000000000000000 ) ) ;
#60 = DIRECTION ( 'NONE',  ( 0.0000000000000000000, 0.0000000000000000000, 1.000000000000000000 ) ) ;
#61 = CARTESIAN_POINT ( 'NONE',  ( 0.0000000000000000000, 0.0000000000000000000, 6.000000000000000900 ) ) ;
#62 = DIRECTION ( 'NONE',  ( -0.0000000000000000000, -0.0000000000000000000, -1.000000000000000000 ) ) ;
#63 = APPLICATION_CONTEXT ( 'automotive_design' ) ;
#64 = AXIS2_PLACEMENT_3D ( 'NONE', #12, #119, #34 ) ;
#65 = PRESENTATION_STYLE_ASSIGNMENT (( #2 ) ) ;
#66 = APPLICATION_PROTOCOL_DEFINITION ( 'draft international standard', 'automotive_design', 1998, #134 ) ;
#67 = ADVANCED_FACE ( 'NONE', ( #131 ), #23, .F. ) ;
#68 = CIRCLE ( 'NONE', #106, 0.4997500000000000300 ) ;
#69 = ORIENTED_EDGE ( 'NONE', *, *, #135, .F. ) ;
#70 = CARTESIAN_POINT ( 'NONE',  ( 0.0000000000000000000, 0.0000000000000000000, 6.000000000000000900 ) ) ;
#71 = STYLED_ITEM ( 'NONE', ( #65 ), #94 ) ;
#72 = SURFACE_SIDE_STYLE ('',( #38 ) ) ;
#73 = LINE ( 'NONE', #50, #136 ) ;
#74 = PRESENTATION_STYLE_ASSIGNMENT (( #5 ) ) ;
#75 = CARTESIAN_POINT ( 'NONE',  ( -0.4997500000000000300, 0.0000000000000000000, 6.000000000000000900 ) ) ;
#76 = PRODUCT_RELATED_PRODUCT_CATEGORY ( 'part', '', ( #44 ) ) ;
#77 = SURFACE_SIDE_STYLE ('',( #35 ) ) ;
#78 = VERTEX_POINT ( 'NONE', #96 ) ;
#79 = VERTEX_POINT ( 'NONE', #132 ) ;
#80 = AXIS2_PLACEMENT_3D ( 'NONE', #70, #1, #86 ) ;
#81 = EDGE_LOOP ( 'NONE', ( #46, #53, #144, #110 ) ) ;
#82 = UNCERTAINTY_MEASURE_WITH_UNIT (LENGTH_MEASURE( 1.000000000000000100E-005 ), #28, 'distance_accuracy_value', 'NONE');
#83 = LENGTH_MEASURE_WITH_UNIT ( LENGTH_MEASURE( 0.02539999999999999900 ), #102 );
#84 = PRODUCT_DEFINITION_FORMATION_WITH_SPECIFIED_SOURCE ( 'ANY', '', #44, .NOT_KNOWN. ) ;
#85 = CARTESIAN_POINT ( 'NONE',  ( 0.0000000000000000000, 0.0000000000000000000, 6.000000000000000900 ) ) ;
#86 = DIRECTION ( 'NONE',  ( 1.000000000000000000, 0.0000000000000000000, -0.0000000000000000000 ) ) ;
#87 =( LENGTH_UNIT ( ) NAMED_UNIT ( * ) SI_UNIT ( $, .METRE. ) );
#88 = ORIENTED_EDGE ( 'NONE', *, *, #14, .T. ) ;
#89 = LENGTH_MEASURE_WITH_UNIT ( LENGTH_MEASURE( 0.02539999999999999900 ), #91 );
#90 = DIRECTION ( 'NONE',  ( 0.0000000000000000000, 0.0000000000000000000, 1.000000000000000000 ) ) ;
#91 =( LENGTH_UNIT ( ) NAMED_UNIT ( * ) SI_UNIT ( $, .METRE. ) );
#92 = ORIENTED_EDGE ( 'NONE', *, *, #6, .T. ) ;
#93 = PRODUCT_DEFINITION ( 'UNKNOWN', '', #84, #98 ) ;
#94 = MANIFOLD_SOLID_BREP ( 'Boss-Extrude1', #19 ) ;
#95 = CARTESIAN_POINT ( 'NONE',  ( 0.4997500000000000300, 6.120172378738897400E-017, 6.000000000000000900 ) ) ;
#96 = CARTESIAN_POINT ( 'NONE',  ( -0.4997500000000000300, 0.0000000000000000000, 6.000000000000000900 ) ) ;
#97 = COLOUR_RGB ( '',0.7921568627450980000, 0.8196078431372548800, 0.9333333333333333500 ) ;
#98 = PRODUCT_DEFINITION_CONTEXT ( 'detailed design', #134, 'design' ) ;
#99 = AXIS2_PLACEMENT_3D ( 'NONE', #85, #140, #59 ) ;
#100 =( NAMED_UNIT ( * ) PLANE_ANGLE_UNIT ( ) SI_UNIT ( $, .RADIAN. ) );
#101 = AXIS2_PLACEMENT_3D ( 'NONE', #133, #41, #125 ) ;
#102 =( LENGTH_UNIT ( ) NAMED_UNIT ( * ) SI_UNIT ( $, .METRE. ) );
#103 = FACE_OUTER_BOUND ( 'NONE', #25, .T. ) ;
#104 =( NAMED_UNIT ( * ) PLANE_ANGLE_UNIT ( ) SI_UNIT ( $, .RADIAN. ) );
#105 = VECTOR ( 'NONE', #62, 39.37007874015748100 ) ;
#106 = AXIS2_PLACEMENT_3D ( 'NONE', #130, #60, #142 ) ;
#107 = CIRCLE ( 'NONE', #22, 0.4997500000000000300 ) ;
#108 = COLOUR_RGB ( '',0.7921568627450980000, 0.8196078431372548800, 0.9333333333333333500 ) ;
#109 = FILL_AREA_STYLE ('',( #120 ) ) ;
#110 = ORIENTED_EDGE ( 'NONE', *, *, #143, .F. ) ;
#111 = UNCERTAINTY_MEASURE_WITH_UNIT (LENGTH_MEASURE( 1.000000000000000100E-005 ), #13, 'distance_accuracy_value', 'NONE');
#112 = ORIENTED_EDGE ( 'NONE', *, *, #135, .T. ) ;
#113 = DIRECTION ( 'NONE',  ( 0.0000000000000000000, 0.0000000000000000000, 1.000000000000000000 ) ) ;
#114 = SHAPE_DEFINITION_REPRESENTATION ( #48, #54 ) ;
#115 =( NAMED_UNIT ( * ) PLANE_ANGLE_UNIT ( ) SI_UNIT ( $, .RADIAN. ) );
#116 = ORIENTED_EDGE ( 'NONE', *, *, #128, .F. ) ;
#117 = ADVANCED_FACE ( 'NONE', ( #4 ), #42, .T. ) ;
#118 = ORIENTED_EDGE ( 'NONE', *, *, #14, .F. ) ;
#119 = DIRECTION ( 'NONE',  ( 0.0000000000000000000, 0.0000000000000000000, 1.000000000000000000 ) ) ;
#120 = FILL_AREA_STYLE_COLOUR ( '', #97 ) ;
#121 = AXIS2_PLACEMENT_3D ( 'NONE', #141, #58, #11 ) ;
#122 = DIRECTION ( 'NONE',  ( -1.000000000000000000, 0.0000000000000000000, 0.0000000000000000000 ) ) ;
#123 = CARTESIAN_POINT ( 'NONE',  ( -0.4997500000000000300, 0.0000000000000000000, -6.000000000000000900 ) ) ;
#124 =( GEOMETRIC_REPRESENTATION_CONTEXT ( 3 ) GLOBAL_UNCERTAINTY_ASSIGNED_CONTEXT ( ( #26 ) ) GLOBAL_UNIT_ASSIGNED_CONTEXT ( ( #18, #104, #29 ) ) REPRESENTATION_CONTEXT ( 'NONE', 'WORKASPACE' ) );
#125 = DIRECTION ( 'NONE',  ( 1.000000000000000000, 0.0000000000000000000, 0.0000000000000000000 ) ) ;
#126 = DIMENSIONAL_EXPONENTS ( 1.000000000000000000, 0.0000000000000000000, 0.0000000000000000000, 0.0000000000000000000, 0.0000000000000000000, 0.0000000000000000000, 0.0000000000000000000 ) ;
#127 = CIRCLE ( 'NONE', #31, 0.4997500000000000300 ) ;
#128 = EDGE_CURVE ( 'NONE', #21, #79, #73, .T. ) ;
#129 = MECHANICAL_DESIGN_GEOMETRIC_PRESENTATION_REPRESENTATION (  '', ( #145 ), #124 ) ;
#130 = CARTESIAN_POINT ( 'NONE',  ( 0.0000000000000000000, 0.0000000000000000000, -6.000000000000000900 ) ) ;
#131 = FACE_OUTER_BOUND ( 'NONE', #139, .T. ) ;
#132 = CARTESIAN_POINT ( 'NONE',  ( 0.4997500000000000300, 6.120172378738897400E-017, -6.000000000000000900 ) ) ;
#133 = CARTESIAN_POINT ( 'NONE',  ( 0.0000000000000000000, 0.0000000000000000000, 0.0000000000000000000 ) ) ;
#134 = APPLICATION_CONTEXT ( 'automotive_design' ) ;
#135 = EDGE_CURVE ( 'NONE', #78, #21, #107, .T. ) ;
#136 = VECTOR ( 'NONE', #47, 39.37007874015748100 ) ;
#137 = PRESENTATION_LAYER_ASSIGNMENT (  '', '', ( #145 ) ) ;
#138 = FACE_OUTER_BOUND ( 'NONE', #49, .T. ) ;
#139 = EDGE_LOOP ( 'NONE', ( #118, #20 ) ) ;
#140 = DIRECTION ( 'NONE',  ( -0.0000000000000000000, -0.0000000000000000000, -1.000000000000000000 ) ) ;
#141 = CARTESIAN_POINT ( 'NONE',  ( 0.0000000000000000000, 0.0000000000000000000, 6.000000000000000900 ) ) ;
#142 = DIRECTION ( 'NONE',  ( 1.000000000000000000, 0.0000000000000000000, 0.0000000000000000000 ) ) ;
#143 = EDGE_CURVE ( 'NONE', #78, #147, #10, .T. ) ;
#144 = ORIENTED_EDGE ( 'NONE', *, *, #149, .T. ) ;
#145 = STYLED_ITEM ( 'NONE', ( #74 ), #54 ) ;
#146 = FILL_AREA_STYLE ('',( #15 ) ) ;
#147 = VERTEX_POINT ( 'NONE', #123 ) ;
#148 = DIMENSIONAL_EXPONENTS ( 1.000000000000000000, 0.0000000000000000000, 0.0000000000000000000, 0.0000000000000000000, 0.0000000000000000000, 0.0000000000000000000, 0.0000000000000000000 ) ;
#149 = EDGE_CURVE ( 'NONE', #79, #147, #127, .T. ) ;
ENDSEC;
END-ISO-10303-21;
