ISO-10303-21;
HEADER;
FILE_DESCRIPTION (( 'STEP AP214' ),
    '1' );
FILE_NAME ('LPCS16-36.step',
    '2017-08-09T17:37:52',
    ( '' ),
    ( '' ),
    'SwSTEP 2.0',
    'SolidWorks 2017',
    '' );
FILE_SCHEMA (( 'AUTOMOTIVE_DESIGN' ));
ENDSEC;

DATA;
#1 = CARTESIAN_POINT ( 'NONE',  ( 0.0000000000000000000, 0.0000000000000000000, 18.00000000000000000 ) ) ;
#2 = CIRCLE ( 'NONE', #126, 0.4997500000000000300 ) ;
#3 = DIRECTION ( 'NONE',  ( 0.0000000000000000000, 0.0000000000000000000, 1.000000000000000000 ) ) ;
#4 = PRODUCT_DEFINITION ( 'UNKNOWN', '', #9, #66 ) ;
#5 = LINE ( 'NONE', #12, #103 ) ;
#6 = EDGE_CURVE ( 'NONE', #73, #15, #87, .T. ) ;
#7 = CYLINDRICAL_SURFACE ( 'NONE', #58, 0.4997500000000000300 ) ;
#8 = ADVANCED_BREP_SHAPE_REPRESENTATION ( 'LPCS16-36', ( #19, #147 ), #81 ) ;
#9 = PRODUCT_DEFINITION_FORMATION_WITH_SPECIFIED_SOURCE ( 'ANY', '', #57, .NOT_KNOWN. ) ;
#10 = DIRECTION ( 'NONE',  ( -0.0000000000000000000, -0.0000000000000000000, -1.000000000000000000 ) ) ;
#11 = DIRECTION ( 'NONE',  ( 0.0000000000000000000, 0.0000000000000000000, 1.000000000000000000 ) ) ;
#12 = CARTESIAN_POINT ( 'NONE',  ( 0.4997500000000000300, 6.120172378738898600E-017, 18.00000000000000000 ) ) ;
#13 = EDGE_CURVE ( 'NONE', #111, #73, #61, .T. ) ;
#14 = PRODUCT_CONTEXT ( 'NONE', #94, 'mechanical' ) ;
#15 = VERTEX_POINT ( 'NONE', #20 ) ;
#16 = PRODUCT_RELATED_PRODUCT_CATEGORY ( 'part', '', ( #57 ) ) ;
#17 = ORIENTED_EDGE ( 'NONE', *, *, #6, .T. ) ;
#18 = EDGE_CURVE ( 'NONE', #41, #15, #2, .T. ) ;
#19 = MANIFOLD_SOLID_BREP ( 'Boss-Extrude1', #31 ) ;
#20 = CARTESIAN_POINT ( 'NONE',  ( -0.4997500000000000300, 0.0000000000000000000, -18.00000000000000000 ) ) ;
#21 = DIRECTION ( 'NONE',  ( 0.0000000000000000000, 0.0000000000000000000, 1.000000000000000000 ) ) ;
#22 = CARTESIAN_POINT ( 'NONE',  ( 0.4997500000000000300, 6.120172378738898600E-017, -18.00000000000000000 ) ) ;
#23 = EDGE_LOOP ( 'NONE', ( #138, #136 ) ) ;
#24 = CARTESIAN_POINT ( 'NONE',  ( 0.0000000000000000000, 0.0000000000000000000, 18.00000000000000000 ) ) ;
#25 = FILL_AREA_STYLE_COLOUR ( '', #77 ) ;
#26 = APPLICATION_PROTOCOL_DEFINITION ( 'draft international standard', 'automotive_design', 1998, #95 ) ;
#27 = ADVANCED_FACE ( 'NONE', ( #60 ), #115, .F. ) ;
#28 = EDGE_LOOP ( 'NONE', ( #38, #145, #148, #119 ) ) ;
#29 = EDGE_CURVE ( 'NONE', #15, #41, #39, .T. ) ;
#30 = COLOUR_RGB ( '',0.7921568627450980000, 0.8196078431372548800, 0.9333333333333333500 ) ;
#31 = CLOSED_SHELL ( 'NONE', ( #69, #83, #133, #27 ) ) ;
#32 = FILL_AREA_STYLE ('',( #46 ) ) ;
#33 = DIRECTION ( 'NONE',  ( -0.0000000000000000000, -0.0000000000000000000, -1.000000000000000000 ) ) ;
#34 = UNCERTAINTY_MEASURE_WITH_UNIT (LENGTH_MEASURE( 1.000000000000000100E-005 ), #132, 'distance_accuracy_value', 'NONE');
#35 = DIRECTION ( 'NONE',  ( 1.000000000000000000, 0.0000000000000000000, 0.0000000000000000000 ) ) ;
#36 = SURFACE_SIDE_STYLE ('',( #97 ) ) ;
#37 = ORIENTED_EDGE ( 'NONE', *, *, #29, .T. ) ;
#38 = ORIENTED_EDGE ( 'NONE', *, *, #13, .F. ) ;
#39 = CIRCLE ( 'NONE', #75, 0.4997500000000000300 ) ;
#40 = CARTESIAN_POINT ( 'NONE',  ( 0.0000000000000000000, 0.0000000000000000000, -18.00000000000000000 ) ) ;
#41 = VERTEX_POINT ( 'NONE', #22 ) ;
#42 = SURFACE_STYLE_USAGE ( .BOTH. , #116 ) ;
#43 = CARTESIAN_POINT ( 'NONE',  ( 0.4997500000000000300, 6.120172378738898600E-017, 18.00000000000000000 ) ) ;
#44 = CARTESIAN_POINT ( 'NONE',  ( 0.0000000000000000000, 0.0000000000000000000, 0.0000000000000000000 ) ) ;
#45 =( LENGTH_UNIT ( ) NAMED_UNIT ( * ) SI_UNIT ( $, .METRE. ) );
#46 = FILL_AREA_STYLE_COLOUR ( '', #30 ) ;
#47 = AXIS2_PLACEMENT_3D ( 'NONE', #24, #107, #35 ) ;
#48 = ORIENTED_EDGE ( 'NONE', *, *, #143, .F. ) ;
#49 = LENGTH_MEASURE_WITH_UNIT ( LENGTH_MEASURE( 0.02539999999999999900 ), #45 );
#50 = ORIENTED_EDGE ( 'NONE', *, *, #13, .T. ) ;
#51 = CARTESIAN_POINT ( 'NONE',  ( 0.0000000000000000000, 0.0000000000000000000, 18.00000000000000000 ) ) ;
#52 =( CONVERSION_BASED_UNIT ( 'INCH', #129 ) LENGTH_UNIT ( ) NAMED_UNIT ( #110 ) );
#53 = DIRECTION ( 'NONE',  ( 0.0000000000000000000, 0.0000000000000000000, 1.000000000000000000 ) ) ;
#54 = SURFACE_STYLE_FILL_AREA ( #32 ) ;
#55 = DIRECTION ( 'NONE',  ( 0.0000000000000000000, 0.0000000000000000000, 1.000000000000000000 ) ) ;
#56 =( CONVERSION_BASED_UNIT ( 'INCH', #62 ) LENGTH_UNIT ( ) NAMED_UNIT ( #122 ) );
#57 = PRODUCT ( 'LPCS16-36', 'LPCS16-36', '', ( #14 ) ) ;
#58 = AXIS2_PLACEMENT_3D ( 'NONE', #102, #33, #67 ) ;
#59 =( NAMED_UNIT ( * ) PLANE_ANGLE_UNIT ( ) SI_UNIT ( $, .RADIAN. ) );
#60 = FACE_OUTER_BOUND ( 'NONE', #23, .T. ) ;
#61 = CIRCLE ( 'NONE', #135, 0.4997500000000000300 ) ;
#62 = LENGTH_MEASURE_WITH_UNIT ( LENGTH_MEASURE( 0.02539999999999999900 ), #131 );
#63 = AXIS2_PLACEMENT_3D ( 'NONE', #1, #91, #117 ) ;
#64 = DIRECTION ( 'NONE',  ( 1.000000000000000000, 0.0000000000000000000, 0.0000000000000000000 ) ) ;
#65 =( NAMED_UNIT ( * ) SI_UNIT ( $, .STERADIAN. ) SOLID_ANGLE_UNIT ( ) );
#66 = PRODUCT_DEFINITION_CONTEXT ( 'detailed design', #95, 'design' ) ;
#67 = DIRECTION ( 'NONE',  ( -1.000000000000000000, 0.0000000000000000000, 0.0000000000000000000 ) ) ;
#68 =( NAMED_UNIT ( * ) SI_UNIT ( $, .STERADIAN. ) SOLID_ANGLE_UNIT ( ) );
#69 = ADVANCED_FACE ( 'NONE', ( #80 ), #7, .T. ) ;
#70 = EDGE_LOOP ( 'NONE', ( #101, #48, #17, #37 ) ) ;
#71 = FACE_OUTER_BOUND ( 'NONE', #70, .T. ) ;
#72 = AXIS2_PLACEMENT_3D ( 'NONE', #118, #55, #141 ) ;
#73 = VERTEX_POINT ( 'NONE', #78 ) ;
#74 = SHAPE_DEFINITION_REPRESENTATION ( #112, #8 ) ;
#75 = AXIS2_PLACEMENT_3D ( 'NONE', #130, #53, #140 ) ;
#76 = FACE_OUTER_BOUND ( 'NONE', #125, .T. ) ;
#77 = COLOUR_RGB ( '',0.7921568627450980000, 0.8196078431372548800, 0.9333333333333333500 ) ;
#78 = CARTESIAN_POINT ( 'NONE',  ( -0.4997500000000000300, 0.0000000000000000000, 18.00000000000000000 ) ) ;
#79 = APPLICATION_PROTOCOL_DEFINITION ( 'draft international standard', 'automotive_design', 1998, #94 ) ;
#80 = FACE_OUTER_BOUND ( 'NONE', #28, .T. ) ;
#81 =( GEOMETRIC_REPRESENTATION_CONTEXT ( 3 ) GLOBAL_UNCERTAINTY_ASSIGNED_CONTEXT ( ( #134 ) ) GLOBAL_UNIT_ASSIGNED_CONTEXT ( ( #56, #142, #68 ) ) REPRESENTATION_CONTEXT ( 'NONE', 'WORKASPACE' ) );
#82 = DIRECTION ( 'NONE',  ( 1.000000000000000000, 0.0000000000000000000, 0.0000000000000000000 ) ) ;
#83 = ADVANCED_FACE ( 'NONE', ( #71 ), #146, .T. ) ;
#84 = ORIENTED_EDGE ( 'NONE', *, *, #143, .T. ) ;
#85 = AXIS2_PLACEMENT_3D ( 'NONE', #40, #11, #89 ) ;
#86 = PRESENTATION_STYLE_ASSIGNMENT (( #121 ) ) ;
#87 = LINE ( 'NONE', #99, #123 ) ;
#88 = CARTESIAN_POINT ( 'NONE',  ( 0.0000000000000000000, 0.0000000000000000000, -18.00000000000000000 ) ) ;
#89 = DIRECTION ( 'NONE',  ( 1.000000000000000000, 0.0000000000000000000, -0.0000000000000000000 ) ) ;
#90 = PRESENTATION_STYLE_ASSIGNMENT (( #42 ) ) ;
#91 = DIRECTION ( 'NONE',  ( -0.0000000000000000000, -0.0000000000000000000, -1.000000000000000000 ) ) ;
#92 = DIRECTION ( 'NONE',  ( -0.0000000000000000000, -0.0000000000000000000, -1.000000000000000000 ) ) ;
#93 =( GEOMETRIC_REPRESENTATION_CONTEXT ( 3 ) GLOBAL_UNCERTAINTY_ASSIGNED_CONTEXT ( ( #105 ) ) GLOBAL_UNIT_ASSIGNED_CONTEXT ( ( #52, #139, #65 ) ) REPRESENTATION_CONTEXT ( 'NONE', 'WORKASPACE' ) );
#94 = APPLICATION_CONTEXT ( 'automotive_design' ) ;
#95 = APPLICATION_CONTEXT ( 'automotive_design' ) ;
#96 = STYLED_ITEM ( 'NONE', ( #86 ), #8 ) ;
#97 = SURFACE_STYLE_FILL_AREA ( #108 ) ;
#98 = MECHANICAL_DESIGN_GEOMETRIC_PRESENTATION_REPRESENTATION (  '', ( #120 ), #93 ) ;
#99 = CARTESIAN_POINT ( 'NONE',  ( -0.4997500000000000300, 0.0000000000000000000, 18.00000000000000000 ) ) ;
#100 = DIRECTION ( 'NONE',  ( 1.000000000000000000, 0.0000000000000000000, 0.0000000000000000000 ) ) ;
#101 = ORIENTED_EDGE ( 'NONE', *, *, #149, .F. ) ;
#102 = CARTESIAN_POINT ( 'NONE',  ( 0.0000000000000000000, 0.0000000000000000000, 18.00000000000000000 ) ) ;
#103 = VECTOR ( 'NONE', #92, 39.37007874015748100 ) ;
#104 = PLANE ( 'NONE',  #72 ) ;
#105 = UNCERTAINTY_MEASURE_WITH_UNIT (LENGTH_MEASURE( 1.000000000000000100E-005 ), #52, 'distance_accuracy_value', 'NONE');
#106 = DIMENSIONAL_EXPONENTS ( 1.000000000000000000, 0.0000000000000000000, 0.0000000000000000000, 0.0000000000000000000, 0.0000000000000000000, 0.0000000000000000000, 0.0000000000000000000 ) ;
#107 = DIRECTION ( 'NONE',  ( 0.0000000000000000000, 0.0000000000000000000, 1.000000000000000000 ) ) ;
#108 = FILL_AREA_STYLE ('',( #25 ) ) ;
#109 = PRESENTATION_LAYER_ASSIGNMENT (  '', '', ( #96 ) ) ;
#110 = DIMENSIONAL_EXPONENTS ( 1.000000000000000000, 0.0000000000000000000, 0.0000000000000000000, 0.0000000000000000000, 0.0000000000000000000, 0.0000000000000000000, 0.0000000000000000000 ) ;
#111 = VERTEX_POINT ( 'NONE', #43 ) ;
#112 = PRODUCT_DEFINITION_SHAPE ( 'NONE', 'NONE',  #4 ) ;
#113 = PRESENTATION_LAYER_ASSIGNMENT (  '', '', ( #120 ) ) ;
#114 = MECHANICAL_DESIGN_GEOMETRIC_PRESENTATION_REPRESENTATION (  '', ( #96 ), #124 ) ;
#115 = PLANE ( 'NONE',  #85 ) ;
#116 = SURFACE_SIDE_STYLE ('',( #54 ) ) ;
#117 = DIRECTION ( 'NONE',  ( -1.000000000000000000, 0.0000000000000000000, 0.0000000000000000000 ) ) ;
#118 = CARTESIAN_POINT ( 'NONE',  ( 0.0000000000000000000, 0.0000000000000000000, 18.00000000000000000 ) ) ;
#119 = ORIENTED_EDGE ( 'NONE', *, *, #6, .F. ) ;
#120 = STYLED_ITEM ( 'NONE', ( #90 ), #19 ) ;
#121 = SURFACE_STYLE_USAGE ( .BOTH. , #36 ) ;
#122 = DIMENSIONAL_EXPONENTS ( 1.000000000000000000, 0.0000000000000000000, 0.0000000000000000000, 0.0000000000000000000, 0.0000000000000000000, 0.0000000000000000000, 0.0000000000000000000 ) ;
#123 = VECTOR ( 'NONE', #10, 39.37007874015748100 ) ;
#124 =( GEOMETRIC_REPRESENTATION_CONTEXT ( 3 ) GLOBAL_UNCERTAINTY_ASSIGNED_CONTEXT ( ( #34 ) ) GLOBAL_UNIT_ASSIGNED_CONTEXT ( ( #132, #59, #144 ) ) REPRESENTATION_CONTEXT ( 'NONE', 'WORKASPACE' ) );
#125 = EDGE_LOOP ( 'NONE', ( #84, #50 ) ) ;
#126 = AXIS2_PLACEMENT_3D ( 'NONE', #88, #21, #100 ) ;
#127 = CIRCLE ( 'NONE', #47, 0.4997500000000000300 ) ;
#128 =( LENGTH_UNIT ( ) NAMED_UNIT ( * ) SI_UNIT ( $, .METRE. ) );
#129 = LENGTH_MEASURE_WITH_UNIT ( LENGTH_MEASURE( 0.02539999999999999900 ), #128 );
#130 = CARTESIAN_POINT ( 'NONE',  ( 0.0000000000000000000, 0.0000000000000000000, -18.00000000000000000 ) ) ;
#131 =( LENGTH_UNIT ( ) NAMED_UNIT ( * ) SI_UNIT ( $, .METRE. ) );
#132 =( CONVERSION_BASED_UNIT ( 'INCH', #49 ) LENGTH_UNIT ( ) NAMED_UNIT ( #106 ) );
#133 = ADVANCED_FACE ( 'NONE', ( #76 ), #104, .T. ) ;
#134 = UNCERTAINTY_MEASURE_WITH_UNIT (LENGTH_MEASURE( 1.000000000000000100E-005 ), #56, 'distance_accuracy_value', 'NONE');
#135 = AXIS2_PLACEMENT_3D ( 'NONE', #51, #137, #64 ) ;
#136 = ORIENTED_EDGE ( 'NONE', *, *, #18, .F. ) ;
#137 = DIRECTION ( 'NONE',  ( 0.0000000000000000000, 0.0000000000000000000, 1.000000000000000000 ) ) ;
#138 = ORIENTED_EDGE ( 'NONE', *, *, #29, .F. ) ;
#139 =( NAMED_UNIT ( * ) PLANE_ANGLE_UNIT ( ) SI_UNIT ( $, .RADIAN. ) );
#140 = DIRECTION ( 'NONE',  ( 1.000000000000000000, 0.0000000000000000000, 0.0000000000000000000 ) ) ;
#141 = DIRECTION ( 'NONE',  ( 1.000000000000000000, 0.0000000000000000000, -0.0000000000000000000 ) ) ;
#142 =( NAMED_UNIT ( * ) PLANE_ANGLE_UNIT ( ) SI_UNIT ( $, .RADIAN. ) );
#143 = EDGE_CURVE ( 'NONE', #73, #111, #127, .T. ) ;
#144 =( NAMED_UNIT ( * ) SI_UNIT ( $, .STERADIAN. ) SOLID_ANGLE_UNIT ( ) );
#145 = ORIENTED_EDGE ( 'NONE', *, *, #149, .T. ) ;
#146 = CYLINDRICAL_SURFACE ( 'NONE', #63, 0.4997500000000000300 ) ;
#147 = AXIS2_PLACEMENT_3D ( 'NONE', #44, #3, #82 ) ;
#148 = ORIENTED_EDGE ( 'NONE', *, *, #18, .T. ) ;
#149 = EDGE_CURVE ( 'NONE', #111, #41, #5, .T. ) ;
ENDSEC;
END-ISO-10303-21;
