ISO-10303-21;
HEADER;
FILE_DESCRIPTION (( 'STEP AP214' ),
    '1' );
FILE_NAME ('LPSS08-12.step',
    '2017-08-09T17:38:08',
    ( '' ),
    ( '' ),
    'SwSTEP 2.0',
    'SolidWorks 2017',
    '' );
FILE_SCHEMA (( 'AUTOMOTIVE_DESIGN' ));
ENDSEC;

DATA;
#1 =( CONVERSION_BASED_UNIT ( 'INCH', #46 ) LENGTH_UNIT ( ) NAMED_UNIT ( #67 ) );
#2 = VECTOR ( 'NONE', #70, 39.37007874015748100 ) ;
#3 = DIRECTION ( 'NONE',  ( 0.0000000000000000000, 0.0000000000000000000, 1.000000000000000000 ) ) ;
#4 = AXIS2_PLACEMENT_3D ( 'NONE', #18, #87, #19 ) ;
#5 = DIRECTION ( 'NONE',  ( 1.000000000000000000, 0.0000000000000000000, 0.0000000000000000000 ) ) ;
#6 = DIRECTION ( 'NONE',  ( 1.000000000000000000, 0.0000000000000000000, 0.0000000000000000000 ) ) ;
#7 =( NAMED_UNIT ( * ) PLANE_ANGLE_UNIT ( ) SI_UNIT ( $, .RADIAN. ) );
#8 = PRODUCT_DEFINITION_SHAPE ( 'NONE', 'NONE',  #12 ) ;
#9 =( GEOMETRIC_REPRESENTATION_CONTEXT ( 3 ) GLOBAL_UNCERTAINTY_ASSIGNED_CONTEXT ( ( #84 ) ) GLOBAL_UNIT_ASSIGNED_CONTEXT ( ( #1, #78, #15 ) ) REPRESENTATION_CONTEXT ( 'NONE', 'WORKASPACE' ) );
#10 = EDGE_LOOP ( 'NONE', ( #107, #96 ) ) ;
#11 = EDGE_LOOP ( 'NONE', ( #137, #38, #99, #98 ) ) ;
#12 = PRODUCT_DEFINITION ( 'UNKNOWN', '', #21, #121 ) ;
#13 = DIMENSIONAL_EXPONENTS ( 1.000000000000000000, 0.0000000000000000000, 0.0000000000000000000, 0.0000000000000000000, 0.0000000000000000000, 0.0000000000000000000, 0.0000000000000000000 ) ;
#14 = SURFACE_STYLE_FILL_AREA ( #43 ) ;
#15 =( NAMED_UNIT ( * ) SI_UNIT ( $, .STERADIAN. ) SOLID_ANGLE_UNIT ( ) );
#16 = CARTESIAN_POINT ( 'NONE',  ( -0.2497500000000000000, 0.0000000000000000000, 6.000000000000000900 ) ) ;
#17 = UNCERTAINTY_MEASURE_WITH_UNIT (LENGTH_MEASURE( 1.000000000000000100E-005 ), #63, 'distance_accuracy_value', 'NONE');
#18 = CARTESIAN_POINT ( 'NONE',  ( 0.0000000000000000000, 0.0000000000000000000, 0.0000000000000000000 ) ) ;
#19 = DIRECTION ( 'NONE',  ( 1.000000000000000000, 0.0000000000000000000, 0.0000000000000000000 ) ) ;
#20 = MANIFOLD_SOLID_BREP ( 'Boss-Extrude1', #119 ) ;
#21 = PRODUCT_DEFINITION_FORMATION_WITH_SPECIFIED_SOURCE ( 'ANY', '', #136, .NOT_KNOWN. ) ;
#22 = LENGTH_MEASURE_WITH_UNIT ( LENGTH_MEASURE( 0.02539999999999999900 ), #145 );
#23 = DIRECTION ( 'NONE',  ( -1.000000000000000000, 0.0000000000000000000, 0.0000000000000000000 ) ) ;
#24 = AXIS2_PLACEMENT_3D ( 'NONE', #143, #71, #5 ) ;
#25 = VERTEX_POINT ( 'NONE', #64 ) ;
#26 = FACE_OUTER_BOUND ( 'NONE', #10, .T. ) ;
#27 = ADVANCED_FACE ( 'NONE', ( #120 ), #135, .T. ) ;
#28 = CARTESIAN_POINT ( 'NONE',  ( 0.0000000000000000000, 0.0000000000000000000, 6.000000000000000900 ) ) ;
#29 = COLOUR_RGB ( '',0.7921568627450980000, 0.8196078431372548800, 0.9333333333333333500 ) ;
#30 = PRODUCT_RELATED_PRODUCT_CATEGORY ( 'part', '', ( #136 ) ) ;
#31 = CIRCLE ( 'NONE', #60, 0.2497500000000000000 ) ;
#32 = DIRECTION ( 'NONE',  ( 0.0000000000000000000, 0.0000000000000000000, 1.000000000000000000 ) ) ;
#33 = APPLICATION_CONTEXT ( 'automotive_design' ) ;
#34 = AXIS2_PLACEMENT_3D ( 'NONE', #28, #37, #113 ) ;
#35 = CYLINDRICAL_SURFACE ( 'NONE', #40, 0.2497500000000000000 ) ;
#36 = ADVANCED_FACE ( 'NONE', ( #39 ), #35, .T. ) ;
#37 = DIRECTION ( 'NONE',  ( -0.0000000000000000000, -0.0000000000000000000, -1.000000000000000000 ) ) ;
#38 = ORIENTED_EDGE ( 'NONE', *, *, #112, .F. ) ;
#39 = FACE_OUTER_BOUND ( 'NONE', #11, .T. ) ;
#40 = AXIS2_PLACEMENT_3D ( 'NONE', #100, #101, #23 ) ;
#41 = CARTESIAN_POINT ( 'NONE',  ( 0.0000000000000000000, 0.0000000000000000000, 6.000000000000000900 ) ) ;
#42 = DIRECTION ( 'NONE',  ( 0.0000000000000000000, 0.0000000000000000000, 1.000000000000000000 ) ) ;
#43 = FILL_AREA_STYLE ('',( #131 ) ) ;
#44 = VERTEX_POINT ( 'NONE', #127 ) ;
#45 = COLOUR_RGB ( '',0.7921568627450980000, 0.8196078431372548800, 0.9333333333333333500 ) ;
#46 = LENGTH_MEASURE_WITH_UNIT ( LENGTH_MEASURE( 0.02539999999999999900 ), #69 );
#47 = AXIS2_PLACEMENT_3D ( 'NONE', #61, #3, #80 ) ;
#48 = FILL_AREA_STYLE_COLOUR ( '', #29 ) ;
#49 = PLANE ( 'NONE',  #47 ) ;
#50 = ORIENTED_EDGE ( 'NONE', *, *, #97, .T. ) ;
#51 = DIRECTION ( 'NONE',  ( 1.000000000000000000, 0.0000000000000000000, 0.0000000000000000000 ) ) ;
#52 = SURFACE_STYLE_USAGE ( .BOTH. , #117 ) ;
#53 = AXIS2_PLACEMENT_3D ( 'NONE', #41, #115, #51 ) ;
#54 = EDGE_LOOP ( 'NONE', ( #68, #50, #81, #142 ) ) ;
#55 = LINE ( 'NONE', #16, #2 ) ;
#56 = DIMENSIONAL_EXPONENTS ( 1.000000000000000000, 0.0000000000000000000, 0.0000000000000000000, 0.0000000000000000000, 0.0000000000000000000, 0.0000000000000000000, 0.0000000000000000000 ) ;
#57 = PRESENTATION_STYLE_ASSIGNMENT (( #140 ) ) ;
#58 = VECTOR ( 'NONE', #62, 39.37007874015748100 ) ;
#59 = SURFACE_SIDE_STYLE ('',( #125 ) ) ;
#60 = AXIS2_PLACEMENT_3D ( 'NONE', #144, #72, #6 ) ;
#61 = CARTESIAN_POINT ( 'NONE',  ( 0.0000000000000000000, 0.0000000000000000000, 6.000000000000000900 ) ) ;
#62 = DIRECTION ( 'NONE',  ( -0.0000000000000000000, -0.0000000000000000000, -1.000000000000000000 ) ) ;
#63 =( CONVERSION_BASED_UNIT ( 'INCH', #94 ) LENGTH_UNIT ( ) NAMED_UNIT ( #56 ) );
#64 = CARTESIAN_POINT ( 'NONE',  ( -0.2497500000000000000, 0.0000000000000000000, 6.000000000000000900 ) ) ;
#65 = EDGE_LOOP ( 'NONE', ( #147, #110 ) ) ;
#66 = AXIS2_PLACEMENT_3D ( 'NONE', #92, #32, #103 ) ;
#67 = DIMENSIONAL_EXPONENTS ( 1.000000000000000000, 0.0000000000000000000, 0.0000000000000000000, 0.0000000000000000000, 0.0000000000000000000, 0.0000000000000000000, 0.0000000000000000000 ) ;
#68 = ORIENTED_EDGE ( 'NONE', *, *, #106, .F. ) ;
#69 =( LENGTH_UNIT ( ) NAMED_UNIT ( * ) SI_UNIT ( $, .METRE. ) );
#70 = DIRECTION ( 'NONE',  ( -0.0000000000000000000, -0.0000000000000000000, -1.000000000000000000 ) ) ;
#71 = DIRECTION ( 'NONE',  ( 0.0000000000000000000, 0.0000000000000000000, 1.000000000000000000 ) ) ;
#72 = DIRECTION ( 'NONE',  ( 0.0000000000000000000, 0.0000000000000000000, 1.000000000000000000 ) ) ;
#73 = LINE ( 'NONE', #129, #58 ) ;
#74 =( CONVERSION_BASED_UNIT ( 'INCH', #22 ) LENGTH_UNIT ( ) NAMED_UNIT ( #13 ) );
#75 =( NAMED_UNIT ( * ) SI_UNIT ( $, .STERADIAN. ) SOLID_ANGLE_UNIT ( ) );
#76 = VERTEX_POINT ( 'NONE', #114 ) ;
#77 = ADVANCED_FACE ( 'NONE', ( #26 ), #49, .T. ) ;
#78 =( NAMED_UNIT ( * ) PLANE_ANGLE_UNIT ( ) SI_UNIT ( $, .RADIAN. ) );
#79 =( GEOMETRIC_REPRESENTATION_CONTEXT ( 3 ) GLOBAL_UNCERTAINTY_ASSIGNED_CONTEXT ( ( #108 ) ) GLOBAL_UNIT_ASSIGNED_CONTEXT ( ( #74, #7, #85 ) ) REPRESENTATION_CONTEXT ( 'NONE', 'WORKASPACE' ) );
#80 = DIRECTION ( 'NONE',  ( 1.000000000000000000, 0.0000000000000000000, -0.0000000000000000000 ) ) ;
#81 = ORIENTED_EDGE ( 'NONE', *, *, #90, .T. ) ;
#82 = PLANE ( 'NONE',  #89 ) ;
#83 = FACE_OUTER_BOUND ( 'NONE', #65, .T. ) ;
#84 = UNCERTAINTY_MEASURE_WITH_UNIT (LENGTH_MEASURE( 1.000000000000000100E-005 ), #1, 'distance_accuracy_value', 'NONE');
#85 =( NAMED_UNIT ( * ) SI_UNIT ( $, .STERADIAN. ) SOLID_ANGLE_UNIT ( ) );
#86 = VERTEX_POINT ( 'NONE', #141 ) ;
#87 = DIRECTION ( 'NONE',  ( 0.0000000000000000000, 0.0000000000000000000, 1.000000000000000000 ) ) ;
#88 = EDGE_CURVE ( 'NONE', #25, #86, #55, .T. ) ;
#89 = AXIS2_PLACEMENT_3D ( 'NONE', #130, #42, #116 ) ;
#90 = EDGE_CURVE ( 'NONE', #44, #86, #91, .T. ) ;
#91 = CIRCLE ( 'NONE', #24, 0.2497500000000000000 ) ;
#92 = CARTESIAN_POINT ( 'NONE',  ( 0.0000000000000000000, 0.0000000000000000000, -6.000000000000000900 ) ) ;
#93 = APPLICATION_PROTOCOL_DEFINITION ( 'draft international standard', 'automotive_design', 1998, #104 ) ;
#94 = LENGTH_MEASURE_WITH_UNIT ( LENGTH_MEASURE( 0.02539999999999999900 ), #133 );
#95 = PRODUCT_CONTEXT ( 'NONE', #104, 'mechanical' ) ;
#96 = ORIENTED_EDGE ( 'NONE', *, *, #106, .T. ) ;
#97 = EDGE_CURVE ( 'NONE', #76, #44, #73, .T. ) ;
#98 = ORIENTED_EDGE ( 'NONE', *, *, #123, .T. ) ;
#99 = ORIENTED_EDGE ( 'NONE', *, *, #88, .T. ) ;
#100 = CARTESIAN_POINT ( 'NONE',  ( 0.0000000000000000000, 0.0000000000000000000, 6.000000000000000900 ) ) ;
#101 = DIRECTION ( 'NONE',  ( -0.0000000000000000000, -0.0000000000000000000, -1.000000000000000000 ) ) ;
#102 = STYLED_ITEM ( 'NONE', ( #132 ), #138 ) ;
#103 = DIRECTION ( 'NONE',  ( 1.000000000000000000, 0.0000000000000000000, 0.0000000000000000000 ) ) ;
#104 = APPLICATION_CONTEXT ( 'automotive_design' ) ;
#105 = APPLICATION_PROTOCOL_DEFINITION ( 'draft international standard', 'automotive_design', 1998, #33 ) ;
#106 = EDGE_CURVE ( 'NONE', #76, #25, #111, .T. ) ;
#107 = ORIENTED_EDGE ( 'NONE', *, *, #112, .T. ) ;
#108 = UNCERTAINTY_MEASURE_WITH_UNIT (LENGTH_MEASURE( 1.000000000000000100E-005 ), #74, 'distance_accuracy_value', 'NONE');
#109 = PRESENTATION_LAYER_ASSIGNMENT (  '', '', ( #102 ) ) ;
#110 = ORIENTED_EDGE ( 'NONE', *, *, #90, .F. ) ;
#111 = CIRCLE ( 'NONE', #53, 0.2497500000000000000 ) ;
#112 = EDGE_CURVE ( 'NONE', #25, #76, #31, .T. ) ;
#113 = DIRECTION ( 'NONE',  ( -1.000000000000000000, 0.0000000000000000000, 0.0000000000000000000 ) ) ;
#114 = CARTESIAN_POINT ( 'NONE',  ( 0.2497500000000000000, 3.058555380870514300E-017, 6.000000000000000900 ) ) ;
#115 = DIRECTION ( 'NONE',  ( 0.0000000000000000000, 0.0000000000000000000, 1.000000000000000000 ) ) ;
#116 = DIRECTION ( 'NONE',  ( 1.000000000000000000, 0.0000000000000000000, -0.0000000000000000000 ) ) ;
#117 = SURFACE_SIDE_STYLE ('',( #14 ) ) ;
#118 = SHAPE_DEFINITION_REPRESENTATION ( #8, #138 ) ;
#119 = CLOSED_SHELL ( 'NONE', ( #27, #36, #77, #124 ) ) ;
#120 = FACE_OUTER_BOUND ( 'NONE', #54, .T. ) ;
#121 = PRODUCT_DEFINITION_CONTEXT ( 'detailed design', #33, 'design' ) ;
#122 = MECHANICAL_DESIGN_GEOMETRIC_PRESENTATION_REPRESENTATION (  '', ( #102 ), #128 ) ;
#123 = EDGE_CURVE ( 'NONE', #86, #44, #148, .T. ) ;
#124 = ADVANCED_FACE ( 'NONE', ( #83 ), #82, .F. ) ;
#125 = SURFACE_STYLE_FILL_AREA ( #126 ) ;
#126 = FILL_AREA_STYLE ('',( #48 ) ) ;
#127 = CARTESIAN_POINT ( 'NONE',  ( 0.2497500000000000000, 3.058555380870514300E-017, -6.000000000000000900 ) ) ;
#128 =( GEOMETRIC_REPRESENTATION_CONTEXT ( 3 ) GLOBAL_UNCERTAINTY_ASSIGNED_CONTEXT ( ( #17 ) ) GLOBAL_UNIT_ASSIGNED_CONTEXT ( ( #63, #146, #75 ) ) REPRESENTATION_CONTEXT ( 'NONE', 'WORKASPACE' ) );
#129 = CARTESIAN_POINT ( 'NONE',  ( 0.2497500000000000000, 3.058555380870514300E-017, 6.000000000000000900 ) ) ;
#130 = CARTESIAN_POINT ( 'NONE',  ( 0.0000000000000000000, 0.0000000000000000000, -6.000000000000000900 ) ) ;
#131 = FILL_AREA_STYLE_COLOUR ( '', #45 ) ;
#132 = PRESENTATION_STYLE_ASSIGNMENT (( #52 ) ) ;
#133 =( LENGTH_UNIT ( ) NAMED_UNIT ( * ) SI_UNIT ( $, .METRE. ) );
#134 = STYLED_ITEM ( 'NONE', ( #57 ), #20 ) ;
#135 = CYLINDRICAL_SURFACE ( 'NONE', #34, 0.2497500000000000000 ) ;
#136 = PRODUCT ( 'LPSS08-12', 'LPSS08-12', '', ( #95 ) ) ;
#137 = ORIENTED_EDGE ( 'NONE', *, *, #97, .F. ) ;
#138 = ADVANCED_BREP_SHAPE_REPRESENTATION ( 'LPSS08-12', ( #20, #4 ), #79 ) ;
#139 = PRESENTATION_LAYER_ASSIGNMENT (  '', '', ( #134 ) ) ;
#140 = SURFACE_STYLE_USAGE ( .BOTH. , #59 ) ;
#141 = CARTESIAN_POINT ( 'NONE',  ( -0.2497500000000000000, 0.0000000000000000000, -6.000000000000000900 ) ) ;
#142 = ORIENTED_EDGE ( 'NONE', *, *, #88, .F. ) ;
#143 = CARTESIAN_POINT ( 'NONE',  ( 0.0000000000000000000, 0.0000000000000000000, -6.000000000000000900 ) ) ;
#144 = CARTESIAN_POINT ( 'NONE',  ( 0.0000000000000000000, 0.0000000000000000000, 6.000000000000000900 ) ) ;
#145 =( LENGTH_UNIT ( ) NAMED_UNIT ( * ) SI_UNIT ( $, .METRE. ) );
#146 =( NAMED_UNIT ( * ) PLANE_ANGLE_UNIT ( ) SI_UNIT ( $, .RADIAN. ) );
#147 = ORIENTED_EDGE ( 'NONE', *, *, #123, .F. ) ;
#148 = CIRCLE ( 'NONE', #66, 0.2497500000000000000 ) ;
#149 = MECHANICAL_DESIGN_GEOMETRIC_PRESENTATION_REPRESENTATION (  '', ( #134 ), #9 ) ;
ENDSEC;
END-ISO-10303-21;
