ISO-10303-21;
HEADER;
FILE_DESCRIPTION (( 'STEP AP214' ),
    '1' );
FILE_NAME ('LPSS08-24.step',
    '2017-08-09T17:38:23',
    ( '' ),
    ( '' ),
    'SwSTEP 2.0',
    'SolidWorks 2017',
    '' );
FILE_SCHEMA (( 'AUTOMOTIVE_DESIGN' ));
ENDSEC;

DATA;
#1 = EDGE_LOOP ( 'NONE', ( #132, #14 ) ) ;
#2 = AXIS2_PLACEMENT_3D ( 'NONE', #147, #148, #68 ) ;
#3 = PRODUCT_DEFINITION_CONTEXT ( 'detailed design', #99, 'design' ) ;
#4 = EDGE_CURVE ( 'NONE', #12, #65, #119, .T. ) ;
#5 = DIRECTION ( 'NONE',  ( -0.0000000000000000000, -0.0000000000000000000, -1.000000000000000000 ) ) ;
#6 = DIRECTION ( 'NONE',  ( -0.0000000000000000000, -0.0000000000000000000, -1.000000000000000000 ) ) ;
#7 = LENGTH_MEASURE_WITH_UNIT ( LENGTH_MEASURE( 0.02539999999999999900 ), #45 );
#8 = PRODUCT_CONTEXT ( 'NONE', #97, 'mechanical' ) ;
#9 = AXIS2_PLACEMENT_3D ( 'NONE', #107, #136, #32 ) ;
#10 = ORIENTED_EDGE ( 'NONE', *, *, #27, .T. ) ;
#11 = EDGE_CURVE ( 'NONE', #12, #72, #26, .T. ) ;
#12 = VERTEX_POINT ( 'NONE', #28 ) ;
#13 = FACE_OUTER_BOUND ( 'NONE', #143, .T. ) ;
#14 = ORIENTED_EDGE ( 'NONE', *, *, #18, .F. ) ;
#15 = DIRECTION ( 'NONE',  ( 0.0000000000000000000, 0.0000000000000000000, 1.000000000000000000 ) ) ;
#16 = CARTESIAN_POINT ( 'NONE',  ( 0.0000000000000000000, 0.0000000000000000000, -12.00000000000000200 ) ) ;
#17 = CARTESIAN_POINT ( 'NONE',  ( 0.0000000000000000000, 0.0000000000000000000, 0.0000000000000000000 ) ) ;
#18 = EDGE_CURVE ( 'NONE', #75, #65, #89, .T. ) ;
#19 = FILL_AREA_STYLE_COLOUR ( '', #100 ) ;
#20 = MANIFOLD_SOLID_BREP ( 'Boss-Extrude1', #35 ) ;
#21 = APPLICATION_PROTOCOL_DEFINITION ( 'draft international standard', 'automotive_design', 1998, #99 ) ;
#22 = CYLINDRICAL_SURFACE ( 'NONE', #145, 0.2497500000000000000 ) ;
#23 = VECTOR ( 'NONE', #5, 39.37007874015748100 ) ;
#24 = FILL_AREA_STYLE_COLOUR ( '', #61 ) ;
#25 = STYLED_ITEM ( 'NONE', ( #129 ), #110 ) ;
#26 = CIRCLE ( 'NONE', #52, 0.2497500000000000000 ) ;
#27 = EDGE_CURVE ( 'NONE', #72, #75, #77, .T. ) ;
#28 = CARTESIAN_POINT ( 'NONE',  ( -0.2497500000000000000, 0.0000000000000000000, 12.00000000000000200 ) ) ;
#29 = FILL_AREA_STYLE ('',( #24 ) ) ;
#30 = ORIENTED_EDGE ( 'NONE', *, *, #11, .F. ) ;
#31 = DIRECTION ( 'NONE',  ( 1.000000000000000000, 0.0000000000000000000, 0.0000000000000000000 ) ) ;
#32 = DIRECTION ( 'NONE',  ( 1.000000000000000000, 0.0000000000000000000, -0.0000000000000000000 ) ) ;
#33 = SURFACE_SIDE_STYLE ('',( #53 ) ) ;
#34 = PRESENTATION_LAYER_ASSIGNMENT (  '', '', ( #25 ) ) ;
#35 = CLOSED_SHELL ( 'NONE', ( #51, #102, #144, #37 ) ) ;
#36 = EDGE_CURVE ( 'NONE', #72, #12, #146, .T. ) ;
#37 = ADVANCED_FACE ( 'NONE', ( #46 ), #94, .F. ) ;
#38 = MECHANICAL_DESIGN_GEOMETRIC_PRESENTATION_REPRESENTATION (  '', ( #25 ), #47 ) ;
#39 = CARTESIAN_POINT ( 'NONE',  ( 0.0000000000000000000, 0.0000000000000000000, -12.00000000000000200 ) ) ;
#40 = SURFACE_STYLE_USAGE ( .BOTH. , #114 ) ;
#41 = DIRECTION ( 'NONE',  ( 0.0000000000000000000, 0.0000000000000000000, 1.000000000000000000 ) ) ;
#42 = PRODUCT_DEFINITION_SHAPE ( 'NONE', 'NONE',  #83 ) ;
#43 = CARTESIAN_POINT ( 'NONE',  ( -0.2497500000000000000, 0.0000000000000000000, -12.00000000000000200 ) ) ;
#44 = EDGE_CURVE ( 'NONE', #65, #75, #48, .T. ) ;
#45 =( LENGTH_UNIT ( ) NAMED_UNIT ( * ) SI_UNIT ( $, .METRE. ) );
#46 = FACE_OUTER_BOUND ( 'NONE', #1, .T. ) ;
#47 =( GEOMETRIC_REPRESENTATION_CONTEXT ( 3 ) GLOBAL_UNCERTAINTY_ASSIGNED_CONTEXT ( ( #131 ) ) GLOBAL_UNIT_ASSIGNED_CONTEXT ( ( #128, #60, #138 ) ) REPRESENTATION_CONTEXT ( 'NONE', 'WORKASPACE' ) );
#48 = CIRCLE ( 'NONE', #117, 0.2497500000000000000 ) ;
#49 = ORIENTED_EDGE ( 'NONE', *, *, #4, .F. ) ;
#50 = UNCERTAINTY_MEASURE_WITH_UNIT (LENGTH_MEASURE( 1.000000000000000100E-005 ), #56, 'distance_accuracy_value', 'NONE');
#51 = ADVANCED_FACE ( 'NONE', ( #13 ), #22, .T. ) ;
#52 = AXIS2_PLACEMENT_3D ( 'NONE', #55, #133, #64 ) ;
#53 = SURFACE_STYLE_FILL_AREA ( #108 ) ;
#54 = SURFACE_STYLE_FILL_AREA ( #29 ) ;
#55 = CARTESIAN_POINT ( 'NONE',  ( 0.0000000000000000000, 0.0000000000000000000, 12.00000000000000200 ) ) ;
#56 =( CONVERSION_BASED_UNIT ( 'INCH', #71 ) LENGTH_UNIT ( ) NAMED_UNIT ( #88 ) );
#57 = DIRECTION ( 'NONE',  ( 0.0000000000000000000, 0.0000000000000000000, 1.000000000000000000 ) ) ;
#58 = CARTESIAN_POINT ( 'NONE',  ( 0.2497500000000000000, 3.058555380870514300E-017, -12.00000000000000200 ) ) ;
#59 =( CONVERSION_BASED_UNIT ( 'INCH', #120 ) LENGTH_UNIT ( ) NAMED_UNIT ( #90 ) );
#60 =( NAMED_UNIT ( * ) PLANE_ANGLE_UNIT ( ) SI_UNIT ( $, .RADIAN. ) );
#61 = COLOUR_RGB ( '',0.7921568627450980000, 0.8196078431372548800, 0.9333333333333333500 ) ;
#62 = AXIS2_PLACEMENT_3D ( 'NONE', #93, #15, #105 ) ;
#63 = EDGE_LOOP ( 'NONE', ( #141, #111 ) ) ;
#64 = DIRECTION ( 'NONE',  ( 1.000000000000000000, 0.0000000000000000000, 0.0000000000000000000 ) ) ;
#65 = VERTEX_POINT ( 'NONE', #43 ) ;
#66 =( NAMED_UNIT ( * ) SI_UNIT ( $, .STERADIAN. ) SOLID_ANGLE_UNIT ( ) );
#67 = DIRECTION ( 'NONE',  ( -0.0000000000000000000, -0.0000000000000000000, -1.000000000000000000 ) ) ;
#68 = DIRECTION ( 'NONE',  ( -1.000000000000000000, 0.0000000000000000000, 0.0000000000000000000 ) ) ;
#69 =( NAMED_UNIT ( * ) SI_UNIT ( $, .STERADIAN. ) SOLID_ANGLE_UNIT ( ) );
#70 = STYLED_ITEM ( 'NONE', ( #142 ), #20 ) ;
#71 = LENGTH_MEASURE_WITH_UNIT ( LENGTH_MEASURE( 0.02539999999999999900 ), #122 );
#72 = VERTEX_POINT ( 'NONE', #126 ) ;
#73 = AXIS2_PLACEMENT_3D ( 'NONE', #17, #149, #82 ) ;
#74 = DIMENSIONAL_EXPONENTS ( 1.000000000000000000, 0.0000000000000000000, 0.0000000000000000000, 0.0000000000000000000, 0.0000000000000000000, 0.0000000000000000000, 0.0000000000000000000 ) ;
#75 = VERTEX_POINT ( 'NONE', #58 ) ;
#76 = PRESENTATION_LAYER_ASSIGNMENT (  '', '', ( #70 ) ) ;
#77 = LINE ( 'NONE', #130, #112 ) ;
#78 = ORIENTED_EDGE ( 'NONE', *, *, #18, .T. ) ;
#79 = CARTESIAN_POINT ( 'NONE',  ( 0.0000000000000000000, 0.0000000000000000000, 12.00000000000000200 ) ) ;
#80 = UNCERTAINTY_MEASURE_WITH_UNIT (LENGTH_MEASURE( 1.000000000000000100E-005 ), #59, 'distance_accuracy_value', 'NONE');
#81 = APPLICATION_PROTOCOL_DEFINITION ( 'draft international standard', 'automotive_design', 1998, #97 ) ;
#82 = DIRECTION ( 'NONE',  ( 1.000000000000000000, 0.0000000000000000000, 0.0000000000000000000 ) ) ;
#83 = PRODUCT_DEFINITION ( 'UNKNOWN', '', #92, #3 ) ;
#84 = ORIENTED_EDGE ( 'NONE', *, *, #4, .T. ) ;
#85 = MECHANICAL_DESIGN_GEOMETRIC_PRESENTATION_REPRESENTATION (  '', ( #70 ), #98 ) ;
#86 = PRODUCT ( 'LPSS08-24', 'LPSS08-24', '', ( #8 ) ) ;
#87 = FACE_OUTER_BOUND ( 'NONE', #63, .T. ) ;
#88 = DIMENSIONAL_EXPONENTS ( 1.000000000000000000, 0.0000000000000000000, 0.0000000000000000000, 0.0000000000000000000, 0.0000000000000000000, 0.0000000000000000000, 0.0000000000000000000 ) ;
#89 = CIRCLE ( 'NONE', #62, 0.2497500000000000000 ) ;
#90 = DIMENSIONAL_EXPONENTS ( 1.000000000000000000, 0.0000000000000000000, 0.0000000000000000000, 0.0000000000000000000, 0.0000000000000000000, 0.0000000000000000000, 0.0000000000000000000 ) ;
#91 = ORIENTED_EDGE ( 'NONE', *, *, #36, .F. ) ;
#92 = PRODUCT_DEFINITION_FORMATION_WITH_SPECIFIED_SOURCE ( 'ANY', '', #86, .NOT_KNOWN. ) ;
#93 = CARTESIAN_POINT ( 'NONE',  ( 0.0000000000000000000, 0.0000000000000000000, -12.00000000000000200 ) ) ;
#94 = PLANE ( 'NONE',  #121 ) ;
#95 = DIRECTION ( 'NONE',  ( -1.000000000000000000, 0.0000000000000000000, 0.0000000000000000000 ) ) ;
#96 = PLANE ( 'NONE',  #9 ) ;
#97 = APPLICATION_CONTEXT ( 'automotive_design' ) ;
#98 =( GEOMETRIC_REPRESENTATION_CONTEXT ( 3 ) GLOBAL_UNCERTAINTY_ASSIGNED_CONTEXT ( ( #50 ) ) GLOBAL_UNIT_ASSIGNED_CONTEXT ( ( #56, #134, #66 ) ) REPRESENTATION_CONTEXT ( 'NONE', 'WORKASPACE' ) );
#99 = APPLICATION_CONTEXT ( 'automotive_design' ) ;
#100 = COLOUR_RGB ( '',0.7921568627450980000, 0.8196078431372548800, 0.9333333333333333500 ) ;
#101 = PRODUCT_RELATED_PRODUCT_CATEGORY ( 'part', '', ( #86 ) ) ;
#102 = ADVANCED_FACE ( 'NONE', ( #140 ), #113, .T. ) ;
#103 = AXIS2_PLACEMENT_3D ( 'NONE', #115, #41, #124 ) ;
#104 = CARTESIAN_POINT ( 'NONE',  ( -0.2497500000000000000, 0.0000000000000000000, 12.00000000000000200 ) ) ;
#105 = DIRECTION ( 'NONE',  ( 1.000000000000000000, 0.0000000000000000000, 0.0000000000000000000 ) ) ;
#106 = DIRECTION ( 'NONE',  ( 0.0000000000000000000, 0.0000000000000000000, 1.000000000000000000 ) ) ;
#107 = CARTESIAN_POINT ( 'NONE',  ( 0.0000000000000000000, 0.0000000000000000000, 12.00000000000000200 ) ) ;
#108 = FILL_AREA_STYLE ('',( #19 ) ) ;
#109 = ORIENTED_EDGE ( 'NONE', *, *, #44, .T. ) ;
#110 = ADVANCED_BREP_SHAPE_REPRESENTATION ( 'LPSS08-24', ( #20, #73 ), #139 ) ;
#111 = ORIENTED_EDGE ( 'NONE', *, *, #36, .T. ) ;
#112 = VECTOR ( 'NONE', #6, 39.37007874015748100 ) ;
#113 = CYLINDRICAL_SURFACE ( 'NONE', #2, 0.2497500000000000000 ) ;
#114 = SURFACE_SIDE_STYLE ('',( #54 ) ) ;
#115 = CARTESIAN_POINT ( 'NONE',  ( 0.0000000000000000000, 0.0000000000000000000, 12.00000000000000200 ) ) ;
#116 = SURFACE_STYLE_USAGE ( .BOTH. , #33 ) ;
#117 = AXIS2_PLACEMENT_3D ( 'NONE', #16, #106, #31 ) ;
#118 = SHAPE_DEFINITION_REPRESENTATION ( #42, #110 ) ;
#119 = LINE ( 'NONE', #104, #23 ) ;
#120 = LENGTH_MEASURE_WITH_UNIT ( LENGTH_MEASURE( 0.02539999999999999900 ), #127 );
#121 = AXIS2_PLACEMENT_3D ( 'NONE', #39, #57, #135 ) ;
#122 =( LENGTH_UNIT ( ) NAMED_UNIT ( * ) SI_UNIT ( $, .METRE. ) );
#123 = EDGE_LOOP ( 'NONE', ( #125, #30, #84, #109 ) ) ;
#124 = DIRECTION ( 'NONE',  ( 1.000000000000000000, 0.0000000000000000000, 0.0000000000000000000 ) ) ;
#125 = ORIENTED_EDGE ( 'NONE', *, *, #27, .F. ) ;
#126 = CARTESIAN_POINT ( 'NONE',  ( 0.2497500000000000000, 3.058555380870514300E-017, 12.00000000000000200 ) ) ;
#127 =( LENGTH_UNIT ( ) NAMED_UNIT ( * ) SI_UNIT ( $, .METRE. ) );
#128 =( CONVERSION_BASED_UNIT ( 'INCH', #7 ) LENGTH_UNIT ( ) NAMED_UNIT ( #74 ) );
#129 = PRESENTATION_STYLE_ASSIGNMENT (( #116 ) ) ;
#130 = CARTESIAN_POINT ( 'NONE',  ( 0.2497500000000000000, 3.058555380870514300E-017, 12.00000000000000200 ) ) ;
#131 = UNCERTAINTY_MEASURE_WITH_UNIT (LENGTH_MEASURE( 1.000000000000000100E-005 ), #128, 'distance_accuracy_value', 'NONE');
#132 = ORIENTED_EDGE ( 'NONE', *, *, #44, .F. ) ;
#133 = DIRECTION ( 'NONE',  ( 0.0000000000000000000, 0.0000000000000000000, 1.000000000000000000 ) ) ;
#134 =( NAMED_UNIT ( * ) PLANE_ANGLE_UNIT ( ) SI_UNIT ( $, .RADIAN. ) );
#135 = DIRECTION ( 'NONE',  ( 1.000000000000000000, 0.0000000000000000000, -0.0000000000000000000 ) ) ;
#136 = DIRECTION ( 'NONE',  ( 0.0000000000000000000, 0.0000000000000000000, 1.000000000000000000 ) ) ;
#137 =( NAMED_UNIT ( * ) PLANE_ANGLE_UNIT ( ) SI_UNIT ( $, .RADIAN. ) );
#138 =( NAMED_UNIT ( * ) SI_UNIT ( $, .STERADIAN. ) SOLID_ANGLE_UNIT ( ) );
#139 =( GEOMETRIC_REPRESENTATION_CONTEXT ( 3 ) GLOBAL_UNCERTAINTY_ASSIGNED_CONTEXT ( ( #80 ) ) GLOBAL_UNIT_ASSIGNED_CONTEXT ( ( #59, #137, #69 ) ) REPRESENTATION_CONTEXT ( 'NONE', 'WORKASPACE' ) );
#140 = FACE_OUTER_BOUND ( 'NONE', #123, .T. ) ;
#141 = ORIENTED_EDGE ( 'NONE', *, *, #11, .T. ) ;
#142 = PRESENTATION_STYLE_ASSIGNMENT (( #40 ) ) ;
#143 = EDGE_LOOP ( 'NONE', ( #91, #10, #78, #49 ) ) ;
#144 = ADVANCED_FACE ( 'NONE', ( #87 ), #96, .T. ) ;
#145 = AXIS2_PLACEMENT_3D ( 'NONE', #79, #67, #95 ) ;
#146 = CIRCLE ( 'NONE', #103, 0.2497500000000000000 ) ;
#147 = CARTESIAN_POINT ( 'NONE',  ( 0.0000000000000000000, 0.0000000000000000000, 12.00000000000000200 ) ) ;
#148 = DIRECTION ( 'NONE',  ( -0.0000000000000000000, -0.0000000000000000000, -1.000000000000000000 ) ) ;
#149 = DIRECTION ( 'NONE',  ( 0.0000000000000000000, 0.0000000000000000000, 1.000000000000000000 ) ) ;
ENDSEC;
END-ISO-10303-21;
