ISO-10303-21;
HEADER;
FILE_DESCRIPTION (( 'STEP AP214' ),
    '1' );
FILE_NAME ('LPSS08-36.step',
    '2017-08-09T17:38:39',
    ( '' ),
    ( '' ),
    'SwSTEP 2.0',
    'SolidWorks 2017',
    '' );
FILE_SCHEMA (( 'AUTOMOTIVE_DESIGN' ));
ENDSEC;

DATA;
#1 = EDGE_CURVE ( 'NONE', #36, #73, #101, .T. ) ;
#2 = APPLICATION_PROTOCOL_DEFINITION ( 'draft international standard', 'automotive_design', 1998, #128 ) ;
#3 = APPLICATION_PROTOCOL_DEFINITION ( 'draft international standard', 'automotive_design', 1998, #67 ) ;
#4 = CARTESIAN_POINT ( 'NONE',  ( 0.2497500000000000000, 3.058555380870514900E-017, -18.00000000000000000 ) ) ;
#5 = PRODUCT_DEFINITION_SHAPE ( 'NONE', 'NONE',  #125 ) ;
#6 = EDGE_LOOP ( 'NONE', ( #62, #50, #105, #126 ) ) ;
#7 = EDGE_LOOP ( 'NONE', ( #39, #117 ) ) ;
#8 = VERTEX_POINT ( 'NONE', #32 ) ;
#9 = AXIS2_PLACEMENT_3D ( 'NONE', #119, #98, #81 ) ;
#10 = PRESENTATION_STYLE_ASSIGNMENT (( #54 ) ) ;
#11 = UNCERTAINTY_MEASURE_WITH_UNIT (LENGTH_MEASURE( 1.000000000000000100E-005 ), #102, 'distance_accuracy_value', 'NONE');
#12 = EDGE_LOOP ( 'NONE', ( #138, #18 ) ) ;
#13 = SURFACE_STYLE_FILL_AREA ( #27 ) ;
#14 = SURFACE_SIDE_STYLE ('',( #33 ) ) ;
#15 = PLANE ( 'NONE',  #51 ) ;
#16 = CARTESIAN_POINT ( 'NONE',  ( -0.2497500000000000000, 0.0000000000000000000, 18.00000000000000000 ) ) ;
#17 = VECTOR ( 'NONE', #85, 39.37007874015748100 ) ;
#18 = ORIENTED_EDGE ( 'NONE', *, *, #142, .T. ) ;
#19 = CARTESIAN_POINT ( 'NONE',  ( 0.0000000000000000000, 0.0000000000000000000, 18.00000000000000000 ) ) ;
#20 = SHAPE_DEFINITION_REPRESENTATION ( #5, #129 ) ;
#21 = LENGTH_MEASURE_WITH_UNIT ( LENGTH_MEASURE( 0.02539999999999999900 ), #135 );
#22 = CARTESIAN_POINT ( 'NONE',  ( 0.2497500000000000000, 3.058555380870514900E-017, 18.00000000000000000 ) ) ;
#23 = ADVANCED_FACE ( 'NONE', ( #72 ), #90, .F. ) ;
#24 =( LENGTH_UNIT ( ) NAMED_UNIT ( * ) SI_UNIT ( $, .METRE. ) );
#25 = CARTESIAN_POINT ( 'NONE',  ( 0.0000000000000000000, 0.0000000000000000000, -18.00000000000000000 ) ) ;
#26 = CARTESIAN_POINT ( 'NONE',  ( 0.0000000000000000000, 0.0000000000000000000, 18.00000000000000000 ) ) ;
#27 = FILL_AREA_STYLE ('',( #47 ) ) ;
#28 = DIRECTION ( 'NONE',  ( 1.000000000000000000, 0.0000000000000000000, 0.0000000000000000000 ) ) ;
#29 = LENGTH_MEASURE_WITH_UNIT ( LENGTH_MEASURE( 0.02539999999999999900 ), #83 );
#30 = PRESENTATION_STYLE_ASSIGNMENT (( #89 ) ) ;
#31 = AXIS2_PLACEMENT_3D ( 'NONE', #25, #104, #38 ) ;
#32 = CARTESIAN_POINT ( 'NONE',  ( 0.2497500000000000000, 3.058555380870514900E-017, 18.00000000000000000 ) ) ;
#33 = SURFACE_STYLE_FILL_AREA ( #80 ) ;
#34 = ADVANCED_FACE ( 'NONE', ( #134 ), #15, .T. ) ;
#35 = CARTESIAN_POINT ( 'NONE',  ( 0.0000000000000000000, 0.0000000000000000000, 18.00000000000000000 ) ) ;
#36 = VERTEX_POINT ( 'NONE', #112 ) ;
#37 =( NAMED_UNIT ( * ) PLANE_ANGLE_UNIT ( ) SI_UNIT ( $, .RADIAN. ) );
#38 = DIRECTION ( 'NONE',  ( 1.000000000000000000, 0.0000000000000000000, -0.0000000000000000000 ) ) ;
#39 = ORIENTED_EDGE ( 'NONE', *, *, #1, .F. ) ;
#40 = STYLED_ITEM ( 'NONE', ( #10 ), #91 ) ;
#41 =( NAMED_UNIT ( * ) PLANE_ANGLE_UNIT ( ) SI_UNIT ( $, .RADIAN. ) );
#42 = CYLINDRICAL_SURFACE ( 'NONE', #59, 0.2497500000000000000 ) ;
#43 = VERTEX_POINT ( 'NONE', #16 ) ;
#44 = PRODUCT_DEFINITION_CONTEXT ( 'detailed design', #67, 'design' ) ;
#45 = LINE ( 'NONE', #149, #65 ) ;
#46 = CYLINDRICAL_SURFACE ( 'NONE', #107, 0.2497500000000000000 ) ;
#47 = FILL_AREA_STYLE_COLOUR ( '', #96 ) ;
#48 = DIRECTION ( 'NONE',  ( -1.000000000000000000, 0.0000000000000000000, 0.0000000000000000000 ) ) ;
#49 = LINE ( 'NONE', #22, #17 ) ;
#50 = ORIENTED_EDGE ( 'NONE', *, *, #109, .T. ) ;
#51 = AXIS2_PLACEMENT_3D ( 'NONE', #57, #141, #68 ) ;
#52 = PRODUCT ( 'LPSS08-36', 'LPSS08-36', '', ( #140 ) ) ;
#53 = AXIS2_PLACEMENT_3D ( 'NONE', #55, #136, #64 ) ;
#54 = SURFACE_STYLE_USAGE ( .BOTH. , #147 ) ;
#55 = CARTESIAN_POINT ( 'NONE',  ( 0.0000000000000000000, 0.0000000000000000000, 18.00000000000000000 ) ) ;
#56 = DIRECTION ( 'NONE',  ( 1.000000000000000000, 0.0000000000000000000, 0.0000000000000000000 ) ) ;
#57 = CARTESIAN_POINT ( 'NONE',  ( 0.0000000000000000000, 0.0000000000000000000, 18.00000000000000000 ) ) ;
#58 = CARTESIAN_POINT ( 'NONE',  ( 0.0000000000000000000, 0.0000000000000000000, -18.00000000000000000 ) ) ;
#59 = AXIS2_PLACEMENT_3D ( 'NONE', #26, #82, #92 ) ;
#60 = CIRCLE ( 'NONE', #88, 0.2497500000000000000 ) ;
#61 = DIMENSIONAL_EXPONENTS ( 1.000000000000000000, 0.0000000000000000000, 0.0000000000000000000, 0.0000000000000000000, 0.0000000000000000000, 0.0000000000000000000, 0.0000000000000000000 ) ;
#62 = ORIENTED_EDGE ( 'NONE', *, *, #142, .F. ) ;
#63 =( CONVERSION_BASED_UNIT ( 'INCH', #21 ) LENGTH_UNIT ( ) NAMED_UNIT ( #108 ) );
#64 = DIRECTION ( 'NONE',  ( 1.000000000000000000, 0.0000000000000000000, 0.0000000000000000000 ) ) ;
#65 = VECTOR ( 'NONE', #121, 39.37007874015748100 ) ;
#66 = PRESENTATION_LAYER_ASSIGNMENT (  '', '', ( #40 ) ) ;
#67 = APPLICATION_CONTEXT ( 'automotive_design' ) ;
#68 = DIRECTION ( 'NONE',  ( 1.000000000000000000, 0.0000000000000000000, -0.0000000000000000000 ) ) ;
#69 = CLOSED_SHELL ( 'NONE', ( #120, #77, #34, #23 ) ) ;
#70 = COLOUR_RGB ( '',0.7921568627450980000, 0.8196078431372548800, 0.9333333333333333500 ) ;
#71 = DIRECTION ( 'NONE',  ( 1.000000000000000000, 0.0000000000000000000, 0.0000000000000000000 ) ) ;
#72 = FACE_OUTER_BOUND ( 'NONE', #7, .T. ) ;
#73 = VERTEX_POINT ( 'NONE', #4 ) ;
#74 = MECHANICAL_DESIGN_GEOMETRIC_PRESENTATION_REPRESENTATION (  '', ( #40 ), #84 ) ;
#75 = UNCERTAINTY_MEASURE_WITH_UNIT (LENGTH_MEASURE( 1.000000000000000100E-005 ), #63, 'distance_accuracy_value', 'NONE');
#76 =( NAMED_UNIT ( * ) SI_UNIT ( $, .STERADIAN. ) SOLID_ANGLE_UNIT ( ) );
#77 = ADVANCED_FACE ( 'NONE', ( #127 ), #42, .T. ) ;
#78 = CARTESIAN_POINT ( 'NONE',  ( 0.0000000000000000000, 0.0000000000000000000, 0.0000000000000000000 ) ) ;
#79 = ORIENTED_EDGE ( 'NONE', *, *, #113, .F. ) ;
#80 = FILL_AREA_STYLE ('',( #114 ) ) ;
#81 = DIRECTION ( 'NONE',  ( 1.000000000000000000, 0.0000000000000000000, 0.0000000000000000000 ) ) ;
#82 = DIRECTION ( 'NONE',  ( -0.0000000000000000000, -0.0000000000000000000, -1.000000000000000000 ) ) ;
#83 =( LENGTH_UNIT ( ) NAMED_UNIT ( * ) SI_UNIT ( $, .METRE. ) );
#84 =( GEOMETRIC_REPRESENTATION_CONTEXT ( 3 ) GLOBAL_UNCERTAINTY_ASSIGNED_CONTEXT ( ( #75 ) ) GLOBAL_UNIT_ASSIGNED_CONTEXT ( ( #63, #148, #76 ) ) REPRESENTATION_CONTEXT ( 'NONE', 'WORKASPACE' ) );
#85 = DIRECTION ( 'NONE',  ( -0.0000000000000000000, -0.0000000000000000000, -1.000000000000000000 ) ) ;
#86 = DIMENSIONAL_EXPONENTS ( 1.000000000000000000, 0.0000000000000000000, 0.0000000000000000000, 0.0000000000000000000, 0.0000000000000000000, 0.0000000000000000000, 0.0000000000000000000 ) ;
#87 = EDGE_LOOP ( 'NONE', ( #122, #79, #131, #93 ) ) ;
#88 = AXIS2_PLACEMENT_3D ( 'NONE', #19, #94, #28 ) ;
#89 = SURFACE_STYLE_USAGE ( .BOTH. , #14 ) ;
#90 = PLANE ( 'NONE',  #31 ) ;
#91 = MANIFOLD_SOLID_BREP ( 'Boss-Extrude1', #69 ) ;
#92 = DIRECTION ( 'NONE',  ( -1.000000000000000000, 0.0000000000000000000, 0.0000000000000000000 ) ) ;
#93 = ORIENTED_EDGE ( 'NONE', *, *, #1, .T. ) ;
#94 = DIRECTION ( 'NONE',  ( 0.0000000000000000000, 0.0000000000000000000, 1.000000000000000000 ) ) ;
#95 =( GEOMETRIC_REPRESENTATION_CONTEXT ( 3 ) GLOBAL_UNCERTAINTY_ASSIGNED_CONTEXT ( ( #11 ) ) GLOBAL_UNIT_ASSIGNED_CONTEXT ( ( #102, #37, #111 ) ) REPRESENTATION_CONTEXT ( 'NONE', 'WORKASPACE' ) );
#96 = COLOUR_RGB ( '',0.7921568627450980000, 0.8196078431372548800, 0.9333333333333333500 ) ;
#97 = AXIS2_PLACEMENT_3D ( 'NONE', #58, #143, #71 ) ;
#98 = DIRECTION ( 'NONE',  ( 0.0000000000000000000, 0.0000000000000000000, 1.000000000000000000 ) ) ;
#99 = DIRECTION ( 'NONE',  ( -0.0000000000000000000, -0.0000000000000000000, -1.000000000000000000 ) ) ;
#100 = CIRCLE ( 'NONE', #53, 0.2497500000000000000 ) ;
#101 = CIRCLE ( 'NONE', #9, 0.2497500000000000000 ) ;
#102 =( CONVERSION_BASED_UNIT ( 'INCH', #145 ) LENGTH_UNIT ( ) NAMED_UNIT ( #86 ) );
#103 = UNCERTAINTY_MEASURE_WITH_UNIT (LENGTH_MEASURE( 1.000000000000000100E-005 ), #106, 'distance_accuracy_value', 'NONE');
#104 = DIRECTION ( 'NONE',  ( 0.0000000000000000000, 0.0000000000000000000, 1.000000000000000000 ) ) ;
#105 = ORIENTED_EDGE ( 'NONE', *, *, #133, .T. ) ;
#106 =( CONVERSION_BASED_UNIT ( 'INCH', #29 ) LENGTH_UNIT ( ) NAMED_UNIT ( #61 ) );
#107 = AXIS2_PLACEMENT_3D ( 'NONE', #35, #99, #48 ) ;
#108 = DIMENSIONAL_EXPONENTS ( 1.000000000000000000, 0.0000000000000000000, 0.0000000000000000000, 0.0000000000000000000, 0.0000000000000000000, 0.0000000000000000000, 0.0000000000000000000 ) ;
#109 = EDGE_CURVE ( 'NONE', #8, #73, #49, .T. ) ;
#110 =( GEOMETRIC_REPRESENTATION_CONTEXT ( 3 ) GLOBAL_UNCERTAINTY_ASSIGNED_CONTEXT ( ( #103 ) ) GLOBAL_UNIT_ASSIGNED_CONTEXT ( ( #106, #41, #115 ) ) REPRESENTATION_CONTEXT ( 'NONE', 'WORKASPACE' ) );
#111 =( NAMED_UNIT ( * ) SI_UNIT ( $, .STERADIAN. ) SOLID_ANGLE_UNIT ( ) );
#112 = CARTESIAN_POINT ( 'NONE',  ( -0.2497500000000000000, 0.0000000000000000000, -18.00000000000000000 ) ) ;
#113 = EDGE_CURVE ( 'NONE', #43, #8, #100, .T. ) ;
#114 = FILL_AREA_STYLE_COLOUR ( '', #70 ) ;
#115 =( NAMED_UNIT ( * ) SI_UNIT ( $, .STERADIAN. ) SOLID_ANGLE_UNIT ( ) );
#116 = AXIS2_PLACEMENT_3D ( 'NONE', #78, #124, #56 ) ;
#117 = ORIENTED_EDGE ( 'NONE', *, *, #133, .F. ) ;
#118 = CIRCLE ( 'NONE', #97, 0.2497500000000000000 ) ;
#119 = CARTESIAN_POINT ( 'NONE',  ( 0.0000000000000000000, 0.0000000000000000000, -18.00000000000000000 ) ) ;
#120 = ADVANCED_FACE ( 'NONE', ( #132 ), #46, .T. ) ;
#121 = DIRECTION ( 'NONE',  ( -0.0000000000000000000, -0.0000000000000000000, -1.000000000000000000 ) ) ;
#122 = ORIENTED_EDGE ( 'NONE', *, *, #109, .F. ) ;
#123 = EDGE_CURVE ( 'NONE', #43, #36, #45, .T. ) ;
#124 = DIRECTION ( 'NONE',  ( 0.0000000000000000000, 0.0000000000000000000, 1.000000000000000000 ) ) ;
#125 = PRODUCT_DEFINITION ( 'UNKNOWN', '', #137, #44 ) ;
#126 = ORIENTED_EDGE ( 'NONE', *, *, #123, .F. ) ;
#127 = FACE_OUTER_BOUND ( 'NONE', #87, .T. ) ;
#128 = APPLICATION_CONTEXT ( 'automotive_design' ) ;
#129 = ADVANCED_BREP_SHAPE_REPRESENTATION ( 'LPSS08-36', ( #91, #116 ), #110 ) ;
#130 = STYLED_ITEM ( 'NONE', ( #30 ), #129 ) ;
#131 = ORIENTED_EDGE ( 'NONE', *, *, #123, .T. ) ;
#132 = FACE_OUTER_BOUND ( 'NONE', #6, .T. ) ;
#133 = EDGE_CURVE ( 'NONE', #73, #36, #118, .T. ) ;
#134 = FACE_OUTER_BOUND ( 'NONE', #12, .T. ) ;
#135 =( LENGTH_UNIT ( ) NAMED_UNIT ( * ) SI_UNIT ( $, .METRE. ) );
#136 = DIRECTION ( 'NONE',  ( 0.0000000000000000000, 0.0000000000000000000, 1.000000000000000000 ) ) ;
#137 = PRODUCT_DEFINITION_FORMATION_WITH_SPECIFIED_SOURCE ( 'ANY', '', #52, .NOT_KNOWN. ) ;
#138 = ORIENTED_EDGE ( 'NONE', *, *, #113, .T. ) ;
#139 = PRESENTATION_LAYER_ASSIGNMENT (  '', '', ( #130 ) ) ;
#140 = PRODUCT_CONTEXT ( 'NONE', #128, 'mechanical' ) ;
#141 = DIRECTION ( 'NONE',  ( 0.0000000000000000000, 0.0000000000000000000, 1.000000000000000000 ) ) ;
#142 = EDGE_CURVE ( 'NONE', #8, #43, #60, .T. ) ;
#143 = DIRECTION ( 'NONE',  ( 0.0000000000000000000, 0.0000000000000000000, 1.000000000000000000 ) ) ;
#144 = PRODUCT_RELATED_PRODUCT_CATEGORY ( 'part', '', ( #52 ) ) ;
#145 = LENGTH_MEASURE_WITH_UNIT ( LENGTH_MEASURE( 0.02539999999999999900 ), #24 );
#146 = MECHANICAL_DESIGN_GEOMETRIC_PRESENTATION_REPRESENTATION (  '', ( #130 ), #95 ) ;
#147 = SURFACE_SIDE_STYLE ('',( #13 ) ) ;
#148 =( NAMED_UNIT ( * ) PLANE_ANGLE_UNIT ( ) SI_UNIT ( $, .RADIAN. ) );
#149 = CARTESIAN_POINT ( 'NONE',  ( -0.2497500000000000000, 0.0000000000000000000, 18.00000000000000000 ) ) ;
ENDSEC;
END-ISO-10303-21;
