ISO-10303-21;
HEADER;
FILE_DESCRIPTION (( 'STEP AP214' ),
    '1' );
FILE_NAME ('LPSS12-12.step',
    '2017-08-09T17:38:55',
    ( '' ),
    ( '' ),
    'SwSTEP 2.0',
    'SolidWorks 2017',
    '' );
FILE_SCHEMA (( 'AUTOMOTIVE_DESIGN' ));
ENDSEC;

DATA;
#1 = PLANE ( 'NONE',  #137 ) ;
#2 = EDGE_CURVE ( 'NONE', #148, #31, #85, .T. ) ;
#3 = DIRECTION ( 'NONE',  ( -1.000000000000000000, 0.0000000000000000000, 0.0000000000000000000 ) ) ;
#4 = PLANE ( 'NONE',  #113 ) ;
#5 = DIRECTION ( 'NONE',  ( -0.0000000000000000000, -0.0000000000000000000, -1.000000000000000000 ) ) ;
#6 =( CONVERSION_BASED_UNIT ( 'INCH', #67 ) LENGTH_UNIT ( ) NAMED_UNIT ( #69 ) );
#7 =( NAMED_UNIT ( * ) SI_UNIT ( $, .STERADIAN. ) SOLID_ANGLE_UNIT ( ) );
#8 = EDGE_CURVE ( 'NONE', #121, #68, #41, .T. ) ;
#9 = PRODUCT_DEFINITION_CONTEXT ( 'detailed design', #40, 'design' ) ;
#10 = CARTESIAN_POINT ( 'NONE',  ( 0.0000000000000000000, 0.0000000000000000000, 6.000000000000000900 ) ) ;
#11 = VECTOR ( 'NONE', #5, 39.37007874015748100 ) ;
#12 = CARTESIAN_POINT ( 'NONE',  ( -0.3747500000000000300, 0.0000000000000000000, -6.000000000000000900 ) ) ;
#13 = FILL_AREA_STYLE ('',( #97 ) ) ;
#14 = DIRECTION ( 'NONE',  ( 1.000000000000000000, 0.0000000000000000000, -0.0000000000000000000 ) ) ;
#15 =( NAMED_UNIT ( * ) SI_UNIT ( $, .STERADIAN. ) SOLID_ANGLE_UNIT ( ) );
#16 = CARTESIAN_POINT ( 'NONE',  ( 0.0000000000000000000, 0.0000000000000000000, 0.0000000000000000000 ) ) ;
#17 = CYLINDRICAL_SURFACE ( 'NONE', #104, 0.3747500000000000300 ) ;
#18 = EDGE_CURVE ( 'NONE', #31, #148, #89, .T. ) ;
#19 = ADVANCED_FACE ( 'NONE', ( #56 ), #1, .F. ) ;
#20 = EDGE_LOOP ( 'NONE', ( #149, #125 ) ) ;
#21 = EDGE_LOOP ( 'NONE', ( #115, #101, #141, #112 ) ) ;
#22 = DIRECTION ( 'NONE',  ( 1.000000000000000000, 0.0000000000000000000, 0.0000000000000000000 ) ) ;
#23 = EDGE_CURVE ( 'NONE', #68, #121, #136, .T. ) ;
#24 = CARTESIAN_POINT ( 'NONE',  ( 0.0000000000000000000, 0.0000000000000000000, 6.000000000000000900 ) ) ;
#25 = CARTESIAN_POINT ( 'NONE',  ( -0.3747500000000000300, 0.0000000000000000000, 6.000000000000000900 ) ) ;
#26 = APPLICATION_PROTOCOL_DEFINITION ( 'draft international standard', 'automotive_design', 1998, #39 ) ;
#27 = DIRECTION ( 'NONE',  ( 1.000000000000000000, 0.0000000000000000000, 0.0000000000000000000 ) ) ;
#28 = FACE_OUTER_BOUND ( 'NONE', #29, .T. ) ;
#29 = EDGE_LOOP ( 'NONE', ( #54, #93 ) ) ;
#30 = VECTOR ( 'NONE', #122, 39.37007874015748100 ) ;
#31 = VERTEX_POINT ( 'NONE', #12 ) ;
#32 = ADVANCED_FACE ( 'NONE', ( #44 ), #106, .T. ) ;
#33 = CLOSED_SHELL ( 'NONE', ( #32, #79, #128, #19 ) ) ;
#34 = DIRECTION ( 'NONE',  ( 0.0000000000000000000, 0.0000000000000000000, 1.000000000000000000 ) ) ;
#35 = CARTESIAN_POINT ( 'NONE',  ( 0.0000000000000000000, 0.0000000000000000000, -6.000000000000000900 ) ) ;
#36 = DIRECTION ( 'NONE',  ( 1.000000000000000000, 0.0000000000000000000, 0.0000000000000000000 ) ) ;
#37 = SURFACE_STYLE_USAGE ( .BOTH. , #108 ) ;
#38 = CARTESIAN_POINT ( 'NONE',  ( 0.3747500000000000300, 4.589363879804705500E-017, -6.000000000000000900 ) ) ;
#39 = APPLICATION_CONTEXT ( 'automotive_design' ) ;
#40 = APPLICATION_CONTEXT ( 'automotive_design' ) ;
#41 = CIRCLE ( 'NONE', #126, 0.3747500000000000300 ) ;
#42 = COLOUR_RGB ( '',0.7921568627450980000, 0.8196078431372548800, 0.9333333333333333500 ) ;
#43 = PRODUCT_DEFINITION ( 'UNKNOWN', '', #78, #9 ) ;
#44 = FACE_OUTER_BOUND ( 'NONE', #21, .T. ) ;
#45 = CARTESIAN_POINT ( 'NONE',  ( 0.0000000000000000000, 0.0000000000000000000, -6.000000000000000900 ) ) ;
#46 = DIRECTION ( 'NONE',  ( 0.0000000000000000000, 0.0000000000000000000, 1.000000000000000000 ) ) ;
#47 = ORIENTED_EDGE ( 'NONE', *, *, #23, .F. ) ;
#48 = DIRECTION ( 'NONE',  ( -0.0000000000000000000, -0.0000000000000000000, -1.000000000000000000 ) ) ;
#49 =( CONVERSION_BASED_UNIT ( 'INCH', #53 ) LENGTH_UNIT ( ) NAMED_UNIT ( #66 ) );
#50 = PRODUCT_DEFINITION_SHAPE ( 'NONE', 'NONE',  #43 ) ;
#51 = SURFACE_SIDE_STYLE ('',( #74 ) ) ;
#52 = AXIS2_PLACEMENT_3D ( 'NONE', #16, #99, #27 ) ;
#53 = LENGTH_MEASURE_WITH_UNIT ( LENGTH_MEASURE( 0.02539999999999999900 ), #120 );
#54 = ORIENTED_EDGE ( 'NONE', *, *, #23, .T. ) ;
#55 = DIMENSIONAL_EXPONENTS ( 1.000000000000000000, 0.0000000000000000000, 0.0000000000000000000, 0.0000000000000000000, 0.0000000000000000000, 0.0000000000000000000, 0.0000000000000000000 ) ;
#56 = FACE_OUTER_BOUND ( 'NONE', #20, .T. ) ;
#57 = LINE ( 'NONE', #25, #30 ) ;
#58 = ORIENTED_EDGE ( 'NONE', *, *, #147, .T. ) ;
#59 = DIRECTION ( 'NONE',  ( 0.0000000000000000000, 0.0000000000000000000, 1.000000000000000000 ) ) ;
#60 = DIRECTION ( 'NONE',  ( -1.000000000000000000, 0.0000000000000000000, 0.0000000000000000000 ) ) ;
#61 =( NAMED_UNIT ( * ) SI_UNIT ( $, .STERADIAN. ) SOLID_ANGLE_UNIT ( ) );
#62 =( LENGTH_UNIT ( ) NAMED_UNIT ( * ) SI_UNIT ( $, .METRE. ) );
#63 =( LENGTH_UNIT ( ) NAMED_UNIT ( * ) SI_UNIT ( $, .METRE. ) );
#64 = UNCERTAINTY_MEASURE_WITH_UNIT (LENGTH_MEASURE( 1.000000000000000100E-005 ), #49, 'distance_accuracy_value', 'NONE');
#65 = AXIS2_PLACEMENT_3D ( 'NONE', #45, #34, #70 ) ;
#66 = DIMENSIONAL_EXPONENTS ( 1.000000000000000000, 0.0000000000000000000, 0.0000000000000000000, 0.0000000000000000000, 0.0000000000000000000, 0.0000000000000000000, 0.0000000000000000000 ) ;
#67 = LENGTH_MEASURE_WITH_UNIT ( LENGTH_MEASURE( 0.02539999999999999900 ), #62 );
#68 = VERTEX_POINT ( 'NONE', #72 ) ;
#69 = DIMENSIONAL_EXPONENTS ( 1.000000000000000000, 0.0000000000000000000, 0.0000000000000000000, 0.0000000000000000000, 0.0000000000000000000, 0.0000000000000000000, 0.0000000000000000000 ) ;
#70 = DIRECTION ( 'NONE',  ( 1.000000000000000000, 0.0000000000000000000, 0.0000000000000000000 ) ) ;
#71 = PRESENTATION_STYLE_ASSIGNMENT (( #37 ) ) ;
#72 = CARTESIAN_POINT ( 'NONE',  ( -0.3747500000000000300, 0.0000000000000000000, 6.000000000000000900 ) ) ;
#73 = FILL_AREA_STYLE_COLOUR ( '', #42 ) ;
#74 = SURFACE_STYLE_FILL_AREA ( #123 ) ;
#75 =( NAMED_UNIT ( * ) PLANE_ANGLE_UNIT ( ) SI_UNIT ( $, .RADIAN. ) );
#76 =( GEOMETRIC_REPRESENTATION_CONTEXT ( 3 ) GLOBAL_UNCERTAINTY_ASSIGNED_CONTEXT ( ( #146 ) ) GLOBAL_UNIT_ASSIGNED_CONTEXT ( ( #145, #75, #7 ) ) REPRESENTATION_CONTEXT ( 'NONE', 'WORKASPACE' ) );
#77 = FACE_OUTER_BOUND ( 'NONE', #114, .T. ) ;
#78 = PRODUCT_DEFINITION_FORMATION_WITH_SPECIFIED_SOURCE ( 'ANY', '', #86, .NOT_KNOWN. ) ;
#79 = ADVANCED_FACE ( 'NONE', ( #77 ), #17, .T. ) ;
#80 =( GEOMETRIC_REPRESENTATION_CONTEXT ( 3 ) GLOBAL_UNCERTAINTY_ASSIGNED_CONTEXT ( ( #91 ) ) GLOBAL_UNIT_ASSIGNED_CONTEXT ( ( #6, #84, #15 ) ) REPRESENTATION_CONTEXT ( 'NONE', 'WORKASPACE' ) );
#81 = MECHANICAL_DESIGN_GEOMETRIC_PRESENTATION_REPRESENTATION (  '', ( #100 ), #76 ) ;
#82 = CARTESIAN_POINT ( 'NONE',  ( 0.3747500000000000300, 4.589363879804705500E-017, 6.000000000000000900 ) ) ;
#83 = DIRECTION ( 'NONE',  ( 0.0000000000000000000, 0.0000000000000000000, 1.000000000000000000 ) ) ;
#84 =( NAMED_UNIT ( * ) PLANE_ANGLE_UNIT ( ) SI_UNIT ( $, .RADIAN. ) );
#85 = CIRCLE ( 'NONE', #65, 0.3747500000000000300 ) ;
#86 = PRODUCT ( 'LPSS12-12', 'LPSS12-12', '', ( #110 ) ) ;
#87 =( GEOMETRIC_REPRESENTATION_CONTEXT ( 3 ) GLOBAL_UNCERTAINTY_ASSIGNED_CONTEXT ( ( #64 ) ) GLOBAL_UNIT_ASSIGNED_CONTEXT ( ( #49, #133, #61 ) ) REPRESENTATION_CONTEXT ( 'NONE', 'WORKASPACE' ) );
#88 = LINE ( 'NONE', #98, #11 ) ;
#89 = CIRCLE ( 'NONE', #130, 0.3747500000000000300 ) ;
#90 = PRESENTATION_LAYER_ASSIGNMENT (  '', '', ( #100 ) ) ;
#91 = UNCERTAINTY_MEASURE_WITH_UNIT (LENGTH_MEASURE( 1.000000000000000100E-005 ), #6, 'distance_accuracy_value', 'NONE');
#92 = SHAPE_DEFINITION_REPRESENTATION ( #50, #116 ) ;
#93 = ORIENTED_EDGE ( 'NONE', *, *, #8, .T. ) ;
#94 = DIRECTION ( 'NONE',  ( 0.0000000000000000000, 0.0000000000000000000, 1.000000000000000000 ) ) ;
#95 = CARTESIAN_POINT ( 'NONE',  ( 0.0000000000000000000, 0.0000000000000000000, 6.000000000000000900 ) ) ;
#96 = MECHANICAL_DESIGN_GEOMETRIC_PRESENTATION_REPRESENTATION (  '', ( #129 ), #87 ) ;
#97 = FILL_AREA_STYLE_COLOUR ( '', #139 ) ;
#98 = CARTESIAN_POINT ( 'NONE',  ( 0.3747500000000000300, 4.589363879804705500E-017, 6.000000000000000900 ) ) ;
#99 = DIRECTION ( 'NONE',  ( 0.0000000000000000000, 0.0000000000000000000, 1.000000000000000000 ) ) ;
#100 = STYLED_ITEM ( 'NONE', ( #105 ), #116 ) ;
#101 = ORIENTED_EDGE ( 'NONE', *, *, #138, .T. ) ;
#102 = ORIENTED_EDGE ( 'NONE', *, *, #18, .T. ) ;
#103 = SURFACE_STYLE_FILL_AREA ( #13 ) ;
#104 = AXIS2_PLACEMENT_3D ( 'NONE', #143, #48, #60 ) ;
#105 = PRESENTATION_STYLE_ASSIGNMENT (( #135 ) ) ;
#106 = CYLINDRICAL_SURFACE ( 'NONE', #111, 0.3747500000000000300 ) ;
#107 = DIRECTION ( 'NONE',  ( 0.0000000000000000000, 0.0000000000000000000, 1.000000000000000000 ) ) ;
#108 = SURFACE_SIDE_STYLE ('',( #103 ) ) ;
#109 = PRODUCT_RELATED_PRODUCT_CATEGORY ( 'part', '', ( #86 ) ) ;
#110 = PRODUCT_CONTEXT ( 'NONE', #39, 'mechanical' ) ;
#111 = AXIS2_PLACEMENT_3D ( 'NONE', #95, #118, #3 ) ;
#112 = ORIENTED_EDGE ( 'NONE', *, *, #147, .F. ) ;
#113 = AXIS2_PLACEMENT_3D ( 'NONE', #132, #83, #14 ) ;
#114 = EDGE_LOOP ( 'NONE', ( #134, #47, #58, #102 ) ) ;
#115 = ORIENTED_EDGE ( 'NONE', *, *, #8, .F. ) ;
#116 = ADVANCED_BREP_SHAPE_REPRESENTATION ( 'LPSS12-12', ( #127, #52 ), #80 ) ;
#117 = CARTESIAN_POINT ( 'NONE',  ( 0.0000000000000000000, 0.0000000000000000000, -6.000000000000000900 ) ) ;
#118 = DIRECTION ( 'NONE',  ( -0.0000000000000000000, -0.0000000000000000000, -1.000000000000000000 ) ) ;
#119 = PRESENTATION_LAYER_ASSIGNMENT (  '', '', ( #129 ) ) ;
#120 =( LENGTH_UNIT ( ) NAMED_UNIT ( * ) SI_UNIT ( $, .METRE. ) );
#121 = VERTEX_POINT ( 'NONE', #82 ) ;
#122 = DIRECTION ( 'NONE',  ( -0.0000000000000000000, -0.0000000000000000000, -1.000000000000000000 ) ) ;
#123 = FILL_AREA_STYLE ('',( #73 ) ) ;
#124 = APPLICATION_PROTOCOL_DEFINITION ( 'draft international standard', 'automotive_design', 1998, #40 ) ;
#125 = ORIENTED_EDGE ( 'NONE', *, *, #2, .F. ) ;
#126 = AXIS2_PLACEMENT_3D ( 'NONE', #10, #94, #22 ) ;
#127 = MANIFOLD_SOLID_BREP ( 'Boss-Extrude1', #33 ) ;
#128 = ADVANCED_FACE ( 'NONE', ( #28 ), #4, .T. ) ;
#129 = STYLED_ITEM ( 'NONE', ( #71 ), #127 ) ;
#130 = AXIS2_PLACEMENT_3D ( 'NONE', #117, #46, #131 ) ;
#131 = DIRECTION ( 'NONE',  ( 1.000000000000000000, 0.0000000000000000000, 0.0000000000000000000 ) ) ;
#132 = CARTESIAN_POINT ( 'NONE',  ( 0.0000000000000000000, 0.0000000000000000000, 6.000000000000000900 ) ) ;
#133 =( NAMED_UNIT ( * ) PLANE_ANGLE_UNIT ( ) SI_UNIT ( $, .RADIAN. ) );
#134 = ORIENTED_EDGE ( 'NONE', *, *, #138, .F. ) ;
#135 = SURFACE_STYLE_USAGE ( .BOTH. , #51 ) ;
#136 = CIRCLE ( 'NONE', #144, 0.3747500000000000300 ) ;
#137 = AXIS2_PLACEMENT_3D ( 'NONE', #35, #59, #142 ) ;
#138 = EDGE_CURVE ( 'NONE', #121, #148, #88, .T. ) ;
#139 = COLOUR_RGB ( '',0.7921568627450980000, 0.8196078431372548800, 0.9333333333333333500 ) ;
#140 = LENGTH_MEASURE_WITH_UNIT ( LENGTH_MEASURE( 0.02539999999999999900 ), #63 );
#141 = ORIENTED_EDGE ( 'NONE', *, *, #2, .T. ) ;
#142 = DIRECTION ( 'NONE',  ( 1.000000000000000000, 0.0000000000000000000, -0.0000000000000000000 ) ) ;
#143 = CARTESIAN_POINT ( 'NONE',  ( 0.0000000000000000000, 0.0000000000000000000, 6.000000000000000900 ) ) ;
#144 = AXIS2_PLACEMENT_3D ( 'NONE', #24, #107, #36 ) ;
#145 =( CONVERSION_BASED_UNIT ( 'INCH', #140 ) LENGTH_UNIT ( ) NAMED_UNIT ( #55 ) );
#146 = UNCERTAINTY_MEASURE_WITH_UNIT (LENGTH_MEASURE( 1.000000000000000100E-005 ), #145, 'distance_accuracy_value', 'NONE');
#147 = EDGE_CURVE ( 'NONE', #68, #31, #57, .T. ) ;
#148 = VERTEX_POINT ( 'NONE', #38 ) ;
#149 = ORIENTED_EDGE ( 'NONE', *, *, #18, .F. ) ;
ENDSEC;
END-ISO-10303-21;
