ISO-10303-21;
HEADER;
FILE_DESCRIPTION (( 'STEP AP214' ),
    '1' );
FILE_NAME ('LPSS12-24.step',
    '2017-08-09T17:39:11',
    ( '' ),
    ( '' ),
    'SwSTEP 2.0',
    'SolidWorks 2017',
    '' );
FILE_SCHEMA (( 'AUTOMOTIVE_DESIGN' ));
ENDSEC;

DATA;
#1 = EDGE_CURVE ( 'NONE', #52, #127, #77, .T. ) ;
#2 = FILL_AREA_STYLE ('',( #88 ) ) ;
#3 = CARTESIAN_POINT ( 'NONE',  ( 0.0000000000000000000, 0.0000000000000000000, 12.00000000000000200 ) ) ;
#4 = CARTESIAN_POINT ( 'NONE',  ( 0.0000000000000000000, 0.0000000000000000000, -12.00000000000000200 ) ) ;
#5 = ORIENTED_EDGE ( 'NONE', *, *, #37, .F. ) ;
#6 = CARTESIAN_POINT ( 'NONE',  ( 0.0000000000000000000, 0.0000000000000000000, 0.0000000000000000000 ) ) ;
#7 = SURFACE_STYLE_USAGE ( .BOTH. , #80 ) ;
#8 = PRODUCT ( 'LPSS12-24', 'LPSS12-24', '', ( #61 ) ) ;
#9 =( GEOMETRIC_REPRESENTATION_CONTEXT ( 3 ) GLOBAL_UNCERTAINTY_ASSIGNED_CONTEXT ( ( #120 ) ) GLOBAL_UNIT_ASSIGNED_CONTEXT ( ( #31, #116, #45 ) ) REPRESENTATION_CONTEXT ( 'NONE', 'WORKASPACE' ) );
#10 = CYLINDRICAL_SURFACE ( 'NONE', #16, 0.3747500000000000300 ) ;
#11 = LINE ( 'NONE', #40, #13 ) ;
#12 = EDGE_CURVE ( 'NONE', #52, #136, #108, .T. ) ;
#13 = VECTOR ( 'NONE', #121, 39.37007874015748100 ) ;
#14 = ORIENTED_EDGE ( 'NONE', *, *, #25, .T. ) ;
#15 = SURFACE_STYLE_USAGE ( .BOTH. , #89 ) ;
#16 = AXIS2_PLACEMENT_3D ( 'NONE', #3, #58, #145 ) ;
#17 = UNCERTAINTY_MEASURE_WITH_UNIT (LENGTH_MEASURE( 1.000000000000000100E-005 ), #18, 'distance_accuracy_value', 'NONE');
#18 =( CONVERSION_BASED_UNIT ( 'INCH', #23 ) LENGTH_UNIT ( ) NAMED_UNIT ( #71 ) );
#19 = ORIENTED_EDGE ( 'NONE', *, *, #20, .T. ) ;
#20 = EDGE_CURVE ( 'NONE', #100, #127, #73, .T. ) ;
#21 = ORIENTED_EDGE ( 'NONE', *, *, #12, .F. ) ;
#22 = EDGE_LOOP ( 'NONE', ( #5, #14, #19, #84 ) ) ;
#23 = LENGTH_MEASURE_WITH_UNIT ( LENGTH_MEASURE( 0.02539999999999999900 ), #94 );
#24 = STYLED_ITEM ( 'NONE', ( #139 ), #141 ) ;
#25 = EDGE_CURVE ( 'NONE', #136, #100, #11, .T. ) ;
#26 = DIRECTION ( 'NONE',  ( 0.0000000000000000000, 0.0000000000000000000, 1.000000000000000000 ) ) ;
#27 =( CONVERSION_BASED_UNIT ( 'INCH', #62 ) LENGTH_UNIT ( ) NAMED_UNIT ( #82 ) );
#28 = MANIFOLD_SOLID_BREP ( 'Boss-Extrude1', #75 ) ;
#29 = DIRECTION ( 'NONE',  ( 0.0000000000000000000, 0.0000000000000000000, 1.000000000000000000 ) ) ;
#30 = DIRECTION ( 'NONE',  ( 0.0000000000000000000, 0.0000000000000000000, 1.000000000000000000 ) ) ;
#31 =( CONVERSION_BASED_UNIT ( 'INCH', #107 ) LENGTH_UNIT ( ) NAMED_UNIT ( #85 ) );
#32 = EDGE_LOOP ( 'NONE', ( #129, #147 ) ) ;
#33 =( NAMED_UNIT ( * ) SI_UNIT ( $, .STERADIAN. ) SOLID_ANGLE_UNIT ( ) );
#34 = PRESENTATION_LAYER_ASSIGNMENT (  '', '', ( #24 ) ) ;
#35 = FACE_OUTER_BOUND ( 'NONE', #67, .T. ) ;
#36 = ADVANCED_FACE ( 'NONE', ( #35 ), #126, .T. ) ;
#37 = EDGE_CURVE ( 'NONE', #136, #52, #99, .T. ) ;
#38 = FACE_OUTER_BOUND ( 'NONE', #22, .T. ) ;
#39 = ORIENTED_EDGE ( 'NONE', *, *, #1, .T. ) ;
#40 = CARTESIAN_POINT ( 'NONE',  ( 0.3747500000000000300, 4.589363879804705500E-017, 12.00000000000000200 ) ) ;
#41 =( NAMED_UNIT ( * ) SI_UNIT ( $, .STERADIAN. ) SOLID_ANGLE_UNIT ( ) );
#42 = MECHANICAL_DESIGN_GEOMETRIC_PRESENTATION_REPRESENTATION (  '', ( #24 ), #51 ) ;
#43 = SURFACE_STYLE_FILL_AREA ( #2 ) ;
#44 = CARTESIAN_POINT ( 'NONE',  ( -0.3747500000000000300, 0.0000000000000000000, -12.00000000000000200 ) ) ;
#45 =( NAMED_UNIT ( * ) SI_UNIT ( $, .STERADIAN. ) SOLID_ANGLE_UNIT ( ) );
#46 = DIRECTION ( 'NONE',  ( 0.0000000000000000000, 0.0000000000000000000, 1.000000000000000000 ) ) ;
#47 = EDGE_CURVE ( 'NONE', #127, #100, #72, .T. ) ;
#48 = FACE_OUTER_BOUND ( 'NONE', #32, .T. ) ;
#49 = ADVANCED_FACE ( 'NONE', ( #48 ), #143, .T. ) ;
#50 = VECTOR ( 'NONE', #53, 39.37007874015748100 ) ;
#51 =( GEOMETRIC_REPRESENTATION_CONTEXT ( 3 ) GLOBAL_UNCERTAINTY_ASSIGNED_CONTEXT ( ( #17 ) ) GLOBAL_UNIT_ASSIGNED_CONTEXT ( ( #18, #106, #33 ) ) REPRESENTATION_CONTEXT ( 'NONE', 'WORKASPACE' ) );
#52 = VERTEX_POINT ( 'NONE', #122 ) ;
#53 = DIRECTION ( 'NONE',  ( -0.0000000000000000000, -0.0000000000000000000, -1.000000000000000000 ) ) ;
#54 = AXIS2_PLACEMENT_3D ( 'NONE', #101, #26, #111 ) ;
#55 = CARTESIAN_POINT ( 'NONE',  ( 0.0000000000000000000, 0.0000000000000000000, -12.00000000000000200 ) ) ;
#56 = CARTESIAN_POINT ( 'NONE',  ( 0.0000000000000000000, 0.0000000000000000000, 12.00000000000000200 ) ) ;
#57 = CARTESIAN_POINT ( 'NONE',  ( 0.0000000000000000000, 0.0000000000000000000, -12.00000000000000200 ) ) ;
#58 = DIRECTION ( 'NONE',  ( -0.0000000000000000000, -0.0000000000000000000, -1.000000000000000000 ) ) ;
#59 = APPLICATION_PROTOCOL_DEFINITION ( 'draft international standard', 'automotive_design', 1998, #68 ) ;
#60 = EDGE_LOOP ( 'NONE', ( #118, #117 ) ) ;
#61 = PRODUCT_CONTEXT ( 'NONE', #68, 'mechanical' ) ;
#62 = LENGTH_MEASURE_WITH_UNIT ( LENGTH_MEASURE( 0.02539999999999999900 ), #103 );
#63 = AXIS2_PLACEMENT_3D ( 'NONE', #55, #130, #64 ) ;
#64 = DIRECTION ( 'NONE',  ( 1.000000000000000000, 0.0000000000000000000, 0.0000000000000000000 ) ) ;
#65 = DIRECTION ( 'NONE',  ( 1.000000000000000000, 0.0000000000000000000, 0.0000000000000000000 ) ) ;
#66 = FACE_OUTER_BOUND ( 'NONE', #60, .T. ) ;
#67 = EDGE_LOOP ( 'NONE', ( #109, #21, #39, #140 ) ) ;
#68 = APPLICATION_CONTEXT ( 'automotive_design' ) ;
#69 = APPLICATION_PROTOCOL_DEFINITION ( 'draft international standard', 'automotive_design', 1998, #135 ) ;
#70 = STYLED_ITEM ( 'NONE', ( #128 ), #28 ) ;
#71 = DIMENSIONAL_EXPONENTS ( 1.000000000000000000, 0.0000000000000000000, 0.0000000000000000000, 0.0000000000000000000, 0.0000000000000000000, 0.0000000000000000000, 0.0000000000000000000 ) ;
#72 = CIRCLE ( 'NONE', #102, 0.3747500000000000300 ) ;
#73 = CIRCLE ( 'NONE', #63, 0.3747500000000000300 ) ;
#74 = AXIS2_PLACEMENT_3D ( 'NONE', #6, #46, #124 ) ;
#75 = CLOSED_SHELL ( 'NONE', ( #138, #36, #49, #96 ) ) ;
#76 = PRESENTATION_LAYER_ASSIGNMENT (  '', '', ( #70 ) ) ;
#77 = LINE ( 'NONE', #142, #50 ) ;
#78 = DIRECTION ( 'NONE',  ( 1.000000000000000000, 0.0000000000000000000, -0.0000000000000000000 ) ) ;
#79 = FILL_AREA_STYLE_COLOUR ( '', #81 ) ;
#80 = SURFACE_SIDE_STYLE ('',( #113 ) ) ;
#81 = COLOUR_RGB ( '',0.7921568627450980000, 0.8196078431372548800, 0.9333333333333333500 ) ;
#82 = DIMENSIONAL_EXPONENTS ( 1.000000000000000000, 0.0000000000000000000, 0.0000000000000000000, 0.0000000000000000000, 0.0000000000000000000, 0.0000000000000000000, 0.0000000000000000000 ) ;
#83 = PRODUCT_DEFINITION ( 'UNKNOWN', '', #91, #97 ) ;
#84 = ORIENTED_EDGE ( 'NONE', *, *, #1, .F. ) ;
#85 = DIMENSIONAL_EXPONENTS ( 1.000000000000000000, 0.0000000000000000000, 0.0000000000000000000, 0.0000000000000000000, 0.0000000000000000000, 0.0000000000000000000, 0.0000000000000000000 ) ;
#86 = DIRECTION ( 'NONE',  ( -1.000000000000000000, 0.0000000000000000000, 0.0000000000000000000 ) ) ;
#87 = MECHANICAL_DESIGN_GEOMETRIC_PRESENTATION_REPRESENTATION (  '', ( #70 ), #95 ) ;
#88 = FILL_AREA_STYLE_COLOUR ( '', #132 ) ;
#89 = SURFACE_SIDE_STYLE ('',( #43 ) ) ;
#90 = CARTESIAN_POINT ( 'NONE',  ( 0.0000000000000000000, 0.0000000000000000000, 12.00000000000000200 ) ) ;
#91 = PRODUCT_DEFINITION_FORMATION_WITH_SPECIFIED_SOURCE ( 'ANY', '', #8, .NOT_KNOWN. ) ;
#92 = CARTESIAN_POINT ( 'NONE',  ( 0.3747500000000000300, 4.589363879804705500E-017, -12.00000000000000200 ) ) ;
#93 = UNCERTAINTY_MEASURE_WITH_UNIT (LENGTH_MEASURE( 1.000000000000000100E-005 ), #27, 'distance_accuracy_value', 'NONE');
#94 =( LENGTH_UNIT ( ) NAMED_UNIT ( * ) SI_UNIT ( $, .METRE. ) );
#95 =( GEOMETRIC_REPRESENTATION_CONTEXT ( 3 ) GLOBAL_UNCERTAINTY_ASSIGNED_CONTEXT ( ( #93 ) ) GLOBAL_UNIT_ASSIGNED_CONTEXT ( ( #27, #112, #41 ) ) REPRESENTATION_CONTEXT ( 'NONE', 'WORKASPACE' ) );
#96 = ADVANCED_FACE ( 'NONE', ( #66 ), #105, .F. ) ;
#97 = PRODUCT_DEFINITION_CONTEXT ( 'detailed design', #135, 'design' ) ;
#98 = PRODUCT_RELATED_PRODUCT_CATEGORY ( 'part', '', ( #8 ) ) ;
#99 = CIRCLE ( 'NONE', #110, 0.3747500000000000300 ) ;
#100 = VERTEX_POINT ( 'NONE', #92 ) ;
#101 = CARTESIAN_POINT ( 'NONE',  ( 0.0000000000000000000, 0.0000000000000000000, 12.00000000000000200 ) ) ;
#102 = AXIS2_PLACEMENT_3D ( 'NONE', #57, #133, #65 ) ;
#103 =( LENGTH_UNIT ( ) NAMED_UNIT ( * ) SI_UNIT ( $, .METRE. ) );
#104 = CARTESIAN_POINT ( 'NONE',  ( 0.0000000000000000000, 0.0000000000000000000, 12.00000000000000200 ) ) ;
#105 = PLANE ( 'NONE',  #149 ) ;
#106 =( NAMED_UNIT ( * ) PLANE_ANGLE_UNIT ( ) SI_UNIT ( $, .RADIAN. ) );
#107 = LENGTH_MEASURE_WITH_UNIT ( LENGTH_MEASURE( 0.02539999999999999900 ), #134 );
#108 = CIRCLE ( 'NONE', #54, 0.3747500000000000300 ) ;
#109 = ORIENTED_EDGE ( 'NONE', *, *, #25, .F. ) ;
#110 = AXIS2_PLACEMENT_3D ( 'NONE', #104, #29, #114 ) ;
#111 = DIRECTION ( 'NONE',  ( 1.000000000000000000, 0.0000000000000000000, 0.0000000000000000000 ) ) ;
#112 =( NAMED_UNIT ( * ) PLANE_ANGLE_UNIT ( ) SI_UNIT ( $, .RADIAN. ) );
#113 = SURFACE_STYLE_FILL_AREA ( #146 ) ;
#114 = DIRECTION ( 'NONE',  ( 1.000000000000000000, 0.0000000000000000000, 0.0000000000000000000 ) ) ;
#115 = DIRECTION ( 'NONE',  ( 1.000000000000000000, 0.0000000000000000000, -0.0000000000000000000 ) ) ;
#116 =( NAMED_UNIT ( * ) PLANE_ANGLE_UNIT ( ) SI_UNIT ( $, .RADIAN. ) );
#117 = ORIENTED_EDGE ( 'NONE', *, *, #20, .F. ) ;
#118 = ORIENTED_EDGE ( 'NONE', *, *, #47, .F. ) ;
#119 = AXIS2_PLACEMENT_3D ( 'NONE', #56, #131, #86 ) ;
#120 = UNCERTAINTY_MEASURE_WITH_UNIT (LENGTH_MEASURE( 1.000000000000000100E-005 ), #31, 'distance_accuracy_value', 'NONE');
#121 = DIRECTION ( 'NONE',  ( -0.0000000000000000000, -0.0000000000000000000, -1.000000000000000000 ) ) ;
#122 = CARTESIAN_POINT ( 'NONE',  ( -0.3747500000000000300, 0.0000000000000000000, 12.00000000000000200 ) ) ;
#123 = CARTESIAN_POINT ( 'NONE',  ( 0.3747500000000000300, 4.589363879804705500E-017, 12.00000000000000200 ) ) ;
#124 = DIRECTION ( 'NONE',  ( 1.000000000000000000, 0.0000000000000000000, 0.0000000000000000000 ) ) ;
#125 = PRODUCT_DEFINITION_SHAPE ( 'NONE', 'NONE',  #83 ) ;
#126 = CYLINDRICAL_SURFACE ( 'NONE', #119, 0.3747500000000000300 ) ;
#127 = VERTEX_POINT ( 'NONE', #44 ) ;
#128 = PRESENTATION_STYLE_ASSIGNMENT (( #15 ) ) ;
#129 = ORIENTED_EDGE ( 'NONE', *, *, #12, .T. ) ;
#130 = DIRECTION ( 'NONE',  ( 0.0000000000000000000, 0.0000000000000000000, 1.000000000000000000 ) ) ;
#131 = DIRECTION ( 'NONE',  ( -0.0000000000000000000, -0.0000000000000000000, -1.000000000000000000 ) ) ;
#132 = COLOUR_RGB ( '',0.7921568627450980000, 0.8196078431372548800, 0.9333333333333333500 ) ;
#133 = DIRECTION ( 'NONE',  ( 0.0000000000000000000, 0.0000000000000000000, 1.000000000000000000 ) ) ;
#134 =( LENGTH_UNIT ( ) NAMED_UNIT ( * ) SI_UNIT ( $, .METRE. ) );
#135 = APPLICATION_CONTEXT ( 'automotive_design' ) ;
#136 = VERTEX_POINT ( 'NONE', #123 ) ;
#137 = AXIS2_PLACEMENT_3D ( 'NONE', #90, #144, #78 ) ;
#138 = ADVANCED_FACE ( 'NONE', ( #38 ), #10, .T. ) ;
#139 = PRESENTATION_STYLE_ASSIGNMENT (( #7 ) ) ;
#140 = ORIENTED_EDGE ( 'NONE', *, *, #47, .T. ) ;
#141 = ADVANCED_BREP_SHAPE_REPRESENTATION ( 'LPSS12-24', ( #28, #74 ), #9 ) ;
#142 = CARTESIAN_POINT ( 'NONE',  ( -0.3747500000000000300, 0.0000000000000000000, 12.00000000000000200 ) ) ;
#143 = PLANE ( 'NONE',  #137 ) ;
#144 = DIRECTION ( 'NONE',  ( 0.0000000000000000000, 0.0000000000000000000, 1.000000000000000000 ) ) ;
#145 = DIRECTION ( 'NONE',  ( -1.000000000000000000, 0.0000000000000000000, 0.0000000000000000000 ) ) ;
#146 = FILL_AREA_STYLE ('',( #79 ) ) ;
#147 = ORIENTED_EDGE ( 'NONE', *, *, #37, .T. ) ;
#148 = SHAPE_DEFINITION_REPRESENTATION ( #125, #141 ) ;
#149 = AXIS2_PLACEMENT_3D ( 'NONE', #4, #30, #115 ) ;
ENDSEC;
END-ISO-10303-21;
