ISO-10303-21;
HEADER;
FILE_DESCRIPTION (( 'STEP AP214' ),
    '1' );
FILE_NAME ('LPSS12-36.step',
    '2017-08-09T17:39:28',
    ( '' ),
    ( '' ),
    'SwSTEP 2.0',
    'SolidWorks 2017',
    '' );
FILE_SCHEMA (( 'AUTOMOTIVE_DESIGN' ));
ENDSEC;

DATA;
#1 = DIRECTION ( 'NONE',  ( 0.0000000000000000000, 0.0000000000000000000, 1.000000000000000000 ) ) ;
#2 = CIRCLE ( 'NONE', #112, 0.3747500000000000300 ) ;
#3 =( LENGTH_UNIT ( ) NAMED_UNIT ( * ) SI_UNIT ( $, .METRE. ) );
#4 = ORIENTED_EDGE ( 'NONE', *, *, #60, .F. ) ;
#5 =( NAMED_UNIT ( * ) SI_UNIT ( $, .STERADIAN. ) SOLID_ANGLE_UNIT ( ) );
#6 = EDGE_LOOP ( 'NONE', ( #126, #70, #56, #132 ) ) ;
#7 = MECHANICAL_DESIGN_GEOMETRIC_PRESENTATION_REPRESENTATION (  '', ( #30 ), #149 ) ;
#8 = DIRECTION ( 'NONE',  ( -1.000000000000000000, 0.0000000000000000000, 0.0000000000000000000 ) ) ;
#9 = FACE_OUTER_BOUND ( 'NONE', #115, .T. ) ;
#10 = PRODUCT_RELATED_PRODUCT_CATEGORY ( 'part', '', ( #143 ) ) ;
#11 = ORIENTED_EDGE ( 'NONE', *, *, #76, .T. ) ;
#12 = PRESENTATION_LAYER_ASSIGNMENT (  '', '', ( #30 ) ) ;
#13 = DIRECTION ( 'NONE',  ( -0.0000000000000000000, -0.0000000000000000000, -1.000000000000000000 ) ) ;
#14 =( NAMED_UNIT ( * ) PLANE_ANGLE_UNIT ( ) SI_UNIT ( $, .RADIAN. ) );
#15 = DIRECTION ( 'NONE',  ( 0.0000000000000000000, 0.0000000000000000000, 1.000000000000000000 ) ) ;
#16 = PRODUCT_DEFINITION_FORMATION_WITH_SPECIFIED_SOURCE ( 'ANY', '', #143, .NOT_KNOWN. ) ;
#17 = CARTESIAN_POINT ( 'NONE',  ( 0.3747500000000000300, 4.589363879804706800E-017, -18.00000000000000000 ) ) ;
#18 = FILL_AREA_STYLE_COLOUR ( '', #46 ) ;
#19 = DIRECTION ( 'NONE',  ( -0.0000000000000000000, -0.0000000000000000000, -1.000000000000000000 ) ) ;
#20 = FACE_OUTER_BOUND ( 'NONE', #130, .T. ) ;
#21 = ADVANCED_FACE ( 'NONE', ( #9 ), #42, .T. ) ;
#22 = AXIS2_PLACEMENT_3D ( 'NONE', #87, #101, #74 ) ;
#23 = PRODUCT_DEFINITION ( 'UNKNOWN', '', #16, #139 ) ;
#24 = CIRCLE ( 'NONE', #140, 0.3747500000000000300 ) ;
#25 = CARTESIAN_POINT ( 'NONE',  ( 0.0000000000000000000, 0.0000000000000000000, -18.00000000000000000 ) ) ;
#26 = CIRCLE ( 'NONE', #134, 0.3747500000000000300 ) ;
#27 = PRODUCT_CONTEXT ( 'NONE', #122, 'mechanical' ) ;
#28 = SURFACE_SIDE_STYLE ('',( #58 ) ) ;
#29 = ORIENTED_EDGE ( 'NONE', *, *, #84, .F. ) ;
#30 = STYLED_ITEM ( 'NONE', ( #78 ), #47 ) ;
#31 = ADVANCED_FACE ( 'NONE', ( #20 ), #65, .F. ) ;
#32 = AXIS2_PLACEMENT_3D ( 'NONE', #131, #15, #99 ) ;
#33 = VECTOR ( 'NONE', #44, 39.37007874015748100 ) ;
#34 = UNCERTAINTY_MEASURE_WITH_UNIT (LENGTH_MEASURE( 1.000000000000000100E-005 ), #86, 'distance_accuracy_value', 'NONE');
#35 = VERTEX_POINT ( 'NONE', #17 ) ;
#36 = AXIS2_PLACEMENT_3D ( 'NONE', #53, #123, #111 ) ;
#37 = CARTESIAN_POINT ( 'NONE',  ( 0.0000000000000000000, 0.0000000000000000000, -18.00000000000000000 ) ) ;
#38 = FACE_OUTER_BOUND ( 'NONE', #106, .T. ) ;
#39 = DIRECTION ( 'NONE',  ( 1.000000000000000000, 0.0000000000000000000, 0.0000000000000000000 ) ) ;
#40 = VERTEX_POINT ( 'NONE', #89 ) ;
#41 = APPLICATION_PROTOCOL_DEFINITION ( 'draft international standard', 'automotive_design', 1998, #110 ) ;
#42 = PLANE ( 'NONE',  #36 ) ;
#43 =( LENGTH_UNIT ( ) NAMED_UNIT ( * ) SI_UNIT ( $, .METRE. ) );
#44 = DIRECTION ( 'NONE',  ( -0.0000000000000000000, -0.0000000000000000000, -1.000000000000000000 ) ) ;
#45 = SURFACE_STYLE_FILL_AREA ( #95 ) ;
#46 = COLOUR_RGB ( '',0.7921568627450980000, 0.8196078431372548800, 0.9333333333333333500 ) ;
#47 = MANIFOLD_SOLID_BREP ( 'Boss-Extrude1', #142 ) ;
#48 = COLOUR_RGB ( '',0.7921568627450980000, 0.8196078431372548800, 0.9333333333333333500 ) ;
#49 = VERTEX_POINT ( 'NONE', #75 ) ;
#50 = DIRECTION ( 'NONE',  ( 1.000000000000000000, 0.0000000000000000000, 0.0000000000000000000 ) ) ;
#51 = FILL_AREA_STYLE_COLOUR ( '', #48 ) ;
#52 = SURFACE_SIDE_STYLE ('',( #45 ) ) ;
#53 = CARTESIAN_POINT ( 'NONE',  ( 0.0000000000000000000, 0.0000000000000000000, 18.00000000000000000 ) ) ;
#54 =( NAMED_UNIT ( * ) PLANE_ANGLE_UNIT ( ) SI_UNIT ( $, .RADIAN. ) );
#55 = DIRECTION ( 'NONE',  ( 0.0000000000000000000, 0.0000000000000000000, 1.000000000000000000 ) ) ;
#56 = ORIENTED_EDGE ( 'NONE', *, *, #84, .T. ) ;
#57 =( GEOMETRIC_REPRESENTATION_CONTEXT ( 3 ) GLOBAL_UNCERTAINTY_ASSIGNED_CONTEXT ( ( #66 ) ) GLOBAL_UNIT_ASSIGNED_CONTEXT ( ( #144, #73, #5 ) ) REPRESENTATION_CONTEXT ( 'NONE', 'WORKASPACE' ) );
#58 = SURFACE_STYLE_FILL_AREA ( #103 ) ;
#59 = CIRCLE ( 'NONE', #128, 0.3747500000000000300 ) ;
#60 = EDGE_CURVE ( 'NONE', #40, #35, #147, .T. ) ;
#61 = CARTESIAN_POINT ( 'NONE',  ( -0.3747500000000000300, 0.0000000000000000000, 18.00000000000000000 ) ) ;
#62 = UNCERTAINTY_MEASURE_WITH_UNIT (LENGTH_MEASURE( 1.000000000000000100E-005 ), #124, 'distance_accuracy_value', 'NONE');
#63 =( LENGTH_UNIT ( ) NAMED_UNIT ( * ) SI_UNIT ( $, .METRE. ) );
#64 = MECHANICAL_DESIGN_GEOMETRIC_PRESENTATION_REPRESENTATION (  '', ( #81 ), #57 ) ;
#65 = PLANE ( 'NONE',  #22 ) ;
#66 = UNCERTAINTY_MEASURE_WITH_UNIT (LENGTH_MEASURE( 1.000000000000000100E-005 ), #144, 'distance_accuracy_value', 'NONE');
#67 = ORIENTED_EDGE ( 'NONE', *, *, #104, .T. ) ;
#68 = DIMENSIONAL_EXPONENTS ( 1.000000000000000000, 0.0000000000000000000, 0.0000000000000000000, 0.0000000000000000000, 0.0000000000000000000, 0.0000000000000000000, 0.0000000000000000000 ) ;
#69 = EDGE_CURVE ( 'NONE', #141, #40, #24, .T. ) ;
#70 = ORIENTED_EDGE ( 'NONE', *, *, #60, .T. ) ;
#71 = PRESENTATION_LAYER_ASSIGNMENT (  '', '', ( #81 ) ) ;
#72 = CARTESIAN_POINT ( 'NONE',  ( 0.0000000000000000000, 0.0000000000000000000, 18.00000000000000000 ) ) ;
#73 =( NAMED_UNIT ( * ) PLANE_ANGLE_UNIT ( ) SI_UNIT ( $, .RADIAN. ) );
#74 = DIRECTION ( 'NONE',  ( 1.000000000000000000, 0.0000000000000000000, -0.0000000000000000000 ) ) ;
#75 = CARTESIAN_POINT ( 'NONE',  ( -0.3747500000000000300, 0.0000000000000000000, -18.00000000000000000 ) ) ;
#76 = EDGE_CURVE ( 'NONE', #141, #49, #96, .T. ) ;
#77 = DIRECTION ( 'NONE',  ( -0.0000000000000000000, -0.0000000000000000000, -1.000000000000000000 ) ) ;
#78 = PRESENTATION_STYLE_ASSIGNMENT (( #113 ) ) ;
#79 = ADVANCED_FACE ( 'NONE', ( #138 ), #148, .T. ) ;
#80 = LENGTH_MEASURE_WITH_UNIT ( LENGTH_MEASURE( 0.02539999999999999900 ), #3 );
#81 = STYLED_ITEM ( 'NONE', ( #107 ), #93 ) ;
#82 = ORIENTED_EDGE ( 'NONE', *, *, #92, .T. ) ;
#83 = ORIENTED_EDGE ( 'NONE', *, *, #69, .T. ) ;
#84 = EDGE_CURVE ( 'NONE', #35, #49, #59, .T. ) ;
#85 = DIRECTION ( 'NONE',  ( 1.000000000000000000, 0.0000000000000000000, 0.0000000000000000000 ) ) ;
#86 =( CONVERSION_BASED_UNIT ( 'INCH', #80 ) LENGTH_UNIT ( ) NAMED_UNIT ( #68 ) );
#87 = CARTESIAN_POINT ( 'NONE',  ( 0.0000000000000000000, 0.0000000000000000000, -18.00000000000000000 ) ) ;
#88 = AXIS2_PLACEMENT_3D ( 'NONE', #100, #13, #121 ) ;
#89 = CARTESIAN_POINT ( 'NONE',  ( 0.3747500000000000300, 4.589363879804706800E-017, 18.00000000000000000 ) ) ;
#90 = CARTESIAN_POINT ( 'NONE',  ( 0.0000000000000000000, 0.0000000000000000000, 18.00000000000000000 ) ) ;
#91 = DIMENSIONAL_EXPONENTS ( 1.000000000000000000, 0.0000000000000000000, 0.0000000000000000000, 0.0000000000000000000, 0.0000000000000000000, 0.0000000000000000000, 0.0000000000000000000 ) ;
#92 = EDGE_CURVE ( 'NONE', #40, #141, #26, .T. ) ;
#93 = ADVANCED_BREP_SHAPE_REPRESENTATION ( 'LPSS12-36', ( #47, #32 ), #94 ) ;
#94 =( GEOMETRIC_REPRESENTATION_CONTEXT ( 3 ) GLOBAL_UNCERTAINTY_ASSIGNED_CONTEXT ( ( #34 ) ) GLOBAL_UNIT_ASSIGNED_CONTEXT ( ( #86, #14, #97 ) ) REPRESENTATION_CONTEXT ( 'NONE', 'WORKASPACE' ) );
#95 = FILL_AREA_STYLE ('',( #51 ) ) ;
#96 = LINE ( 'NONE', #114, #33 ) ;
#97 =( NAMED_UNIT ( * ) SI_UNIT ( $, .STERADIAN. ) SOLID_ANGLE_UNIT ( ) );
#98 = ORIENTED_EDGE ( 'NONE', *, *, #104, .F. ) ;
#99 = DIRECTION ( 'NONE',  ( 1.000000000000000000, 0.0000000000000000000, 0.0000000000000000000 ) ) ;
#100 = CARTESIAN_POINT ( 'NONE',  ( 0.0000000000000000000, 0.0000000000000000000, 18.00000000000000000 ) ) ;
#101 = DIRECTION ( 'NONE',  ( 0.0000000000000000000, 0.0000000000000000000, 1.000000000000000000 ) ) ;
#102 = LENGTH_MEASURE_WITH_UNIT ( LENGTH_MEASURE( 0.02539999999999999900 ), #63 );
#103 = FILL_AREA_STYLE ('',( #18 ) ) ;
#104 = EDGE_CURVE ( 'NONE', #49, #35, #2, .T. ) ;
#105 = LENGTH_MEASURE_WITH_UNIT ( LENGTH_MEASURE( 0.02539999999999999900 ), #43 );
#106 = EDGE_LOOP ( 'NONE', ( #4, #117, #11, #67 ) ) ;
#107 = PRESENTATION_STYLE_ASSIGNMENT (( #133 ) ) ;
#108 = DIRECTION ( 'NONE',  ( 0.0000000000000000000, 0.0000000000000000000, 1.000000000000000000 ) ) ;
#109 = APPLICATION_PROTOCOL_DEFINITION ( 'draft international standard', 'automotive_design', 1998, #122 ) ;
#110 = APPLICATION_CONTEXT ( 'automotive_design' ) ;
#111 = DIRECTION ( 'NONE',  ( 1.000000000000000000, 0.0000000000000000000, -0.0000000000000000000 ) ) ;
#112 = AXIS2_PLACEMENT_3D ( 'NONE', #25, #108, #39 ) ;
#113 = SURFACE_STYLE_USAGE ( .BOTH. , #28 ) ;
#114 = CARTESIAN_POINT ( 'NONE',  ( -0.3747500000000000300, 0.0000000000000000000, 18.00000000000000000 ) ) ;
#115 = EDGE_LOOP ( 'NONE', ( #83, #82 ) ) ;
#116 = DIMENSIONAL_EXPONENTS ( 1.000000000000000000, 0.0000000000000000000, 0.0000000000000000000, 0.0000000000000000000, 0.0000000000000000000, 0.0000000000000000000, 0.0000000000000000000 ) ;
#117 = ORIENTED_EDGE ( 'NONE', *, *, #69, .F. ) ;
#118 = AXIS2_PLACEMENT_3D ( 'NONE', #90, #77, #8 ) ;
#119 = DIRECTION ( 'NONE',  ( 0.0000000000000000000, 0.0000000000000000000, 1.000000000000000000 ) ) ;
#120 = PRODUCT_DEFINITION_SHAPE ( 'NONE', 'NONE',  #23 ) ;
#121 = DIRECTION ( 'NONE',  ( -1.000000000000000000, 0.0000000000000000000, 0.0000000000000000000 ) ) ;
#122 = APPLICATION_CONTEXT ( 'automotive_design' ) ;
#123 = DIRECTION ( 'NONE',  ( 0.0000000000000000000, 0.0000000000000000000, 1.000000000000000000 ) ) ;
#124 =( CONVERSION_BASED_UNIT ( 'INCH', #105 ) LENGTH_UNIT ( ) NAMED_UNIT ( #116 ) );
#125 = CARTESIAN_POINT ( 'NONE',  ( 0.0000000000000000000, 0.0000000000000000000, 18.00000000000000000 ) ) ;
#126 = ORIENTED_EDGE ( 'NONE', *, *, #92, .F. ) ;
#127 = ADVANCED_FACE ( 'NONE', ( #38 ), #145, .T. ) ;
#128 = AXIS2_PLACEMENT_3D ( 'NONE', #37, #119, #50 ) ;
#129 = VECTOR ( 'NONE', #19, 39.37007874015748100 ) ;
#130 = EDGE_LOOP ( 'NONE', ( #98, #29 ) ) ;
#131 = CARTESIAN_POINT ( 'NONE',  ( 0.0000000000000000000, 0.0000000000000000000, 0.0000000000000000000 ) ) ;
#132 = ORIENTED_EDGE ( 'NONE', *, *, #76, .F. ) ;
#133 = SURFACE_STYLE_USAGE ( .BOTH. , #52 ) ;
#134 = AXIS2_PLACEMENT_3D ( 'NONE', #72, #1, #85 ) ;
#135 =( NAMED_UNIT ( * ) SI_UNIT ( $, .STERADIAN. ) SOLID_ANGLE_UNIT ( ) );
#136 = DIRECTION ( 'NONE',  ( 1.000000000000000000, 0.0000000000000000000, 0.0000000000000000000 ) ) ;
#137 = SHAPE_DEFINITION_REPRESENTATION ( #120, #93 ) ;
#138 = FACE_OUTER_BOUND ( 'NONE', #6, .T. ) ;
#139 = PRODUCT_DEFINITION_CONTEXT ( 'detailed design', #110, 'design' ) ;
#140 = AXIS2_PLACEMENT_3D ( 'NONE', #125, #55, #136 ) ;
#141 = VERTEX_POINT ( 'NONE', #61 ) ;
#142 = CLOSED_SHELL ( 'NONE', ( #79, #127, #21, #31 ) ) ;
#143 = PRODUCT ( 'LPSS12-36', 'LPSS12-36', '', ( #27 ) ) ;
#144 =( CONVERSION_BASED_UNIT ( 'INCH', #102 ) LENGTH_UNIT ( ) NAMED_UNIT ( #91 ) );
#145 = CYLINDRICAL_SURFACE ( 'NONE', #88, 0.3747500000000000300 ) ;
#146 = CARTESIAN_POINT ( 'NONE',  ( 0.3747500000000000300, 4.589363879804706800E-017, 18.00000000000000000 ) ) ;
#147 = LINE ( 'NONE', #146, #129 ) ;
#148 = CYLINDRICAL_SURFACE ( 'NONE', #118, 0.3747500000000000300 ) ;
#149 =( GEOMETRIC_REPRESENTATION_CONTEXT ( 3 ) GLOBAL_UNCERTAINTY_ASSIGNED_CONTEXT ( ( #62 ) ) GLOBAL_UNIT_ASSIGNED_CONTEXT ( ( #124, #54, #135 ) ) REPRESENTATION_CONTEXT ( 'NONE', 'WORKASPACE' ) );
ENDSEC;
END-ISO-10303-21;
