ISO-10303-21;
HEADER;
FILE_DESCRIPTION (( 'STEP AP214' ),
    '1' );
FILE_NAME ('LPSS16-12.step',
    '2017-08-09T17:39:44',
    ( '' ),
    ( '' ),
    'SwSTEP 2.0',
    'SolidWorks 2017',
    '' );
FILE_SCHEMA (( 'AUTOMOTIVE_DESIGN' ));
ENDSEC;

DATA;
#1 = UNCERTAINTY_MEASURE_WITH_UNIT (LENGTH_MEASURE( 1.000000000000000100E-005 ), #136, 'distance_accuracy_value', 'NONE');
#2 = VECTOR ( 'NONE', #28, 39.37007874015748100 ) ;
#3 = EDGE_LOOP ( 'NONE', ( #99, #125 ) ) ;
#4 = EDGE_LOOP ( 'NONE', ( #93, #147, #119, #23 ) ) ;
#5 = CARTESIAN_POINT ( 'NONE',  ( -0.4997500000000000300, 0.0000000000000000000, 6.000000000000000900 ) ) ;
#6 = FACE_OUTER_BOUND ( 'NONE', #3, .T. ) ;
#7 =( NAMED_UNIT ( * ) SI_UNIT ( $, .STERADIAN. ) SOLID_ANGLE_UNIT ( ) );
#8 = DIRECTION ( 'NONE',  ( -1.000000000000000000, 0.0000000000000000000, 0.0000000000000000000 ) ) ;
#9 = CARTESIAN_POINT ( 'NONE',  ( 0.4997500000000000300, 6.120172378738897400E-017, -6.000000000000000900 ) ) ;
#10 = VERTEX_POINT ( 'NONE', #107 ) ;
#11 = SURFACE_STYLE_FILL_AREA ( #103 ) ;
#12 = APPLICATION_PROTOCOL_DEFINITION ( 'draft international standard', 'automotive_design', 1998, #21 ) ;
#13 = PRODUCT_CONTEXT ( 'NONE', #21, 'mechanical' ) ;
#14 = LINE ( 'NONE', #18, #71 ) ;
#15 = MANIFOLD_SOLID_BREP ( 'Boss-Extrude1', #35 ) ;
#16 = VERTEX_POINT ( 'NONE', #5 ) ;
#17 = LENGTH_MEASURE_WITH_UNIT ( LENGTH_MEASURE( 0.02539999999999999900 ), #64 );
#18 = CARTESIAN_POINT ( 'NONE',  ( -0.4997500000000000300, 0.0000000000000000000, 6.000000000000000900 ) ) ;
#19 = FILL_AREA_STYLE_COLOUR ( '', #106 ) ;
#20 = MECHANICAL_DESIGN_GEOMETRIC_PRESENTATION_REPRESENTATION (  '', ( #51 ), #24 ) ;
#21 = APPLICATION_CONTEXT ( 'automotive_design' ) ;
#22 = APPLICATION_PROTOCOL_DEFINITION ( 'draft international standard', 'automotive_design', 1998, #87 ) ;
#23 = ORIENTED_EDGE ( 'NONE', *, *, #73, .F. ) ;
#24 =( GEOMETRIC_REPRESENTATION_CONTEXT ( 3 ) GLOBAL_UNCERTAINTY_ASSIGNED_CONTEXT ( ( #25 ) ) GLOBAL_UNIT_ASSIGNED_CONTEXT ( ( #142, #75, #7 ) ) REPRESENTATION_CONTEXT ( 'NONE', 'WORKASPACE' ) );
#25 = UNCERTAINTY_MEASURE_WITH_UNIT (LENGTH_MEASURE( 1.000000000000000100E-005 ), #142, 'distance_accuracy_value', 'NONE');
#26 = PLANE ( 'NONE',  #46 ) ;
#27 = CARTESIAN_POINT ( 'NONE',  ( 0.0000000000000000000, 0.0000000000000000000, -6.000000000000000900 ) ) ;
#28 = DIRECTION ( 'NONE',  ( -0.0000000000000000000, -0.0000000000000000000, -1.000000000000000000 ) ) ;
#29 = DIRECTION ( 'NONE',  ( 1.000000000000000000, 0.0000000000000000000, -0.0000000000000000000 ) ) ;
#30 = SURFACE_SIDE_STYLE ('',( #11 ) ) ;
#31 = CYLINDRICAL_SURFACE ( 'NONE', #86, 0.4997500000000000300 ) ;
#32 = VERTEX_POINT ( 'NONE', #141 ) ;
#33 = PRODUCT_DEFINITION_SHAPE ( 'NONE', 'NONE',  #88 ) ;
#34 = FACE_OUTER_BOUND ( 'NONE', #89, .T. ) ;
#35 = CLOSED_SHELL ( 'NONE', ( #130, #83, #36, #139 ) ) ;
#36 = ADVANCED_FACE ( 'NONE', ( #128 ), #26, .T. ) ;
#37 = CIRCLE ( 'NONE', #57, 0.4997500000000000300 ) ;
#38 = FILL_AREA_STYLE_COLOUR ( '', #40 ) ;
#39 = DIRECTION ( 'NONE',  ( 1.000000000000000000, 0.0000000000000000000, 0.0000000000000000000 ) ) ;
#40 = COLOUR_RGB ( '',0.7921568627450980000, 0.8196078431372548800, 0.9333333333333333500 ) ;
#41 = DIRECTION ( 'NONE',  ( 0.0000000000000000000, 0.0000000000000000000, 1.000000000000000000 ) ) ;
#42 = AXIS2_PLACEMENT_3D ( 'NONE', #132, #65, #143 ) ;
#43 =( LENGTH_UNIT ( ) NAMED_UNIT ( * ) SI_UNIT ( $, .METRE. ) );
#44 = PRESENTATION_LAYER_ASSIGNMENT (  '', '', ( #127 ) ) ;
#45 = PRESENTATION_LAYER_ASSIGNMENT (  '', '', ( #51 ) ) ;
#46 = AXIS2_PLACEMENT_3D ( 'NONE', #96, #62, #98 ) ;
#47 = PRESENTATION_STYLE_ASSIGNMENT (( #131 ) ) ;
#48 = MECHANICAL_DESIGN_GEOMETRIC_PRESENTATION_REPRESENTATION (  '', ( #127 ), #59 ) ;
#49 = SURFACE_SIDE_STYLE ('',( #80 ) ) ;
#50 = CARTESIAN_POINT ( 'NONE',  ( 0.0000000000000000000, 0.0000000000000000000, 6.000000000000000900 ) ) ;
#51 = STYLED_ITEM ( 'NONE', ( #47 ), #15 ) ;
#52 = CARTESIAN_POINT ( 'NONE',  ( 0.0000000000000000000, 0.0000000000000000000, -6.000000000000000900 ) ) ;
#53 =( LENGTH_UNIT ( ) NAMED_UNIT ( * ) SI_UNIT ( $, .METRE. ) );
#54 = ORIENTED_EDGE ( 'NONE', *, *, #73, .T. ) ;
#55 =( NAMED_UNIT ( * ) PLANE_ANGLE_UNIT ( ) SI_UNIT ( $, .RADIAN. ) );
#56 = DIMENSIONAL_EXPONENTS ( 1.000000000000000000, 0.0000000000000000000, 0.0000000000000000000, 0.0000000000000000000, 0.0000000000000000000, 0.0000000000000000000, 0.0000000000000000000 ) ;
#57 = AXIS2_PLACEMENT_3D ( 'NONE', #27, #108, #39 ) ;
#58 = DIMENSIONAL_EXPONENTS ( 1.000000000000000000, 0.0000000000000000000, 0.0000000000000000000, 0.0000000000000000000, 0.0000000000000000000, 0.0000000000000000000, 0.0000000000000000000 ) ;
#59 =( GEOMETRIC_REPRESENTATION_CONTEXT ( 3 ) GLOBAL_UNCERTAINTY_ASSIGNED_CONTEXT ( ( #97 ) ) GLOBAL_UNIT_ASSIGNED_CONTEXT ( ( #123, #55, #137 ) ) REPRESENTATION_CONTEXT ( 'NONE', 'WORKASPACE' ) );
#60 = PRODUCT ( 'LPSS16-12', 'LPSS16-12', '', ( #13 ) ) ;
#61 = EDGE_CURVE ( 'NONE', #16, #32, #113, .T. ) ;
#62 = DIRECTION ( 'NONE',  ( 0.0000000000000000000, 0.0000000000000000000, 1.000000000000000000 ) ) ;
#63 = CIRCLE ( 'NONE', #79, 0.4997500000000000300 ) ;
#64 =( LENGTH_UNIT ( ) NAMED_UNIT ( * ) SI_UNIT ( $, .METRE. ) );
#65 = DIRECTION ( 'NONE',  ( 0.0000000000000000000, 0.0000000000000000000, 1.000000000000000000 ) ) ;
#66 = DIRECTION ( 'NONE',  ( 0.0000000000000000000, 0.0000000000000000000, 1.000000000000000000 ) ) ;
#67 = ORIENTED_EDGE ( 'NONE', *, *, #61, .T. ) ;
#68 = DIRECTION ( 'NONE',  ( -0.0000000000000000000, -0.0000000000000000000, -1.000000000000000000 ) ) ;
#69 =( NAMED_UNIT ( * ) PLANE_ANGLE_UNIT ( ) SI_UNIT ( $, .RADIAN. ) );
#70 = AXIS2_PLACEMENT_3D ( 'NONE', #134, #66, #144 ) ;
#71 = VECTOR ( 'NONE', #120, 39.37007874015748100 ) ;
#72 = ORIENTED_EDGE ( 'NONE', *, *, #101, .F. ) ;
#73 = EDGE_CURVE ( 'NONE', #16, #10, #14, .T. ) ;
#74 =( GEOMETRIC_REPRESENTATION_CONTEXT ( 3 ) GLOBAL_UNCERTAINTY_ASSIGNED_CONTEXT ( ( #1 ) ) GLOBAL_UNIT_ASSIGNED_CONTEXT ( ( #136, #69, #146 ) ) REPRESENTATION_CONTEXT ( 'NONE', 'WORKASPACE' ) );
#75 =( NAMED_UNIT ( * ) PLANE_ANGLE_UNIT ( ) SI_UNIT ( $, .RADIAN. ) );
#76 = DIRECTION ( 'NONE',  ( -0.0000000000000000000, -0.0000000000000000000, -1.000000000000000000 ) ) ;
#77 = EDGE_CURVE ( 'NONE', #115, #10, #37, .T. ) ;
#78 = DIRECTION ( 'NONE',  ( 1.000000000000000000, 0.0000000000000000000, 0.0000000000000000000 ) ) ;
#79 = AXIS2_PLACEMENT_3D ( 'NONE', #109, #41, #121 ) ;
#80 = SURFACE_STYLE_FILL_AREA ( #117 ) ;
#81 = AXIS2_PLACEMENT_3D ( 'NONE', #110, #148, #78 ) ;
#82 = EDGE_CURVE ( 'NONE', #32, #16, #95, .T. ) ;
#83 = ADVANCED_FACE ( 'NONE', ( #34 ), #31, .T. ) ;
#84 = ORIENTED_EDGE ( 'NONE', *, *, #82, .T. ) ;
#85 = PLANE ( 'NONE',  #112 ) ;
#86 = AXIS2_PLACEMENT_3D ( 'NONE', #50, #76, #8 ) ;
#87 = APPLICATION_CONTEXT ( 'automotive_design' ) ;
#88 = PRODUCT_DEFINITION ( 'UNKNOWN', '', #94, #116 ) ;
#89 = EDGE_LOOP ( 'NONE', ( #72, #122, #54, #129 ) ) ;
#90 = EDGE_CURVE ( 'NONE', #10, #115, #63, .T. ) ;
#91 = LENGTH_MEASURE_WITH_UNIT ( LENGTH_MEASURE( 0.02539999999999999900 ), #43 );
#92 = LINE ( 'NONE', #100, #2 ) ;
#93 = ORIENTED_EDGE ( 'NONE', *, *, #82, .F. ) ;
#94 = PRODUCT_DEFINITION_FORMATION_WITH_SPECIFIED_SOURCE ( 'ANY', '', #60, .NOT_KNOWN. ) ;
#95 = CIRCLE ( 'NONE', #70, 0.4997500000000000300 ) ;
#96 = CARTESIAN_POINT ( 'NONE',  ( 0.0000000000000000000, 0.0000000000000000000, 6.000000000000000900 ) ) ;
#97 = UNCERTAINTY_MEASURE_WITH_UNIT (LENGTH_MEASURE( 1.000000000000000100E-005 ), #123, 'distance_accuracy_value', 'NONE');
#98 = DIRECTION ( 'NONE',  ( 1.000000000000000000, 0.0000000000000000000, -0.0000000000000000000 ) ) ;
#99 = ORIENTED_EDGE ( 'NONE', *, *, #90, .F. ) ;
#100 = CARTESIAN_POINT ( 'NONE',  ( 0.4997500000000000300, 6.120172378738897400E-017, 6.000000000000000900 ) ) ;
#101 = EDGE_CURVE ( 'NONE', #32, #115, #92, .T. ) ;
#102 = DIRECTION ( 'NONE',  ( 0.0000000000000000000, 0.0000000000000000000, 1.000000000000000000 ) ) ;
#103 = FILL_AREA_STYLE ('',( #19 ) ) ;
#104 = AXIS2_PLACEMENT_3D ( 'NONE', #135, #68, #145 ) ;
#105 = PRODUCT_RELATED_PRODUCT_CATEGORY ( 'part', '', ( #60 ) ) ;
#106 = COLOUR_RGB ( '',0.7921568627450980000, 0.8196078431372548800, 0.9333333333333333500 ) ;
#107 = CARTESIAN_POINT ( 'NONE',  ( -0.4997500000000000300, 0.0000000000000000000, -6.000000000000000900 ) ) ;
#108 = DIRECTION ( 'NONE',  ( 0.0000000000000000000, 0.0000000000000000000, 1.000000000000000000 ) ) ;
#109 = CARTESIAN_POINT ( 'NONE',  ( 0.0000000000000000000, 0.0000000000000000000, -6.000000000000000900 ) ) ;
#110 = CARTESIAN_POINT ( 'NONE',  ( 0.0000000000000000000, 0.0000000000000000000, 0.0000000000000000000 ) ) ;
#111 = SURFACE_STYLE_USAGE ( .BOTH. , #30 ) ;
#112 = AXIS2_PLACEMENT_3D ( 'NONE', #52, #102, #29 ) ;
#113 = CIRCLE ( 'NONE', #42, 0.4997500000000000300 ) ;
#114 = SHAPE_DEFINITION_REPRESENTATION ( #33, #124 ) ;
#115 = VERTEX_POINT ( 'NONE', #9 ) ;
#116 = PRODUCT_DEFINITION_CONTEXT ( 'detailed design', #87, 'design' ) ;
#117 = FILL_AREA_STYLE ('',( #38 ) ) ;
#118 = FACE_OUTER_BOUND ( 'NONE', #4, .T. ) ;
#119 = ORIENTED_EDGE ( 'NONE', *, *, #77, .T. ) ;
#120 = DIRECTION ( 'NONE',  ( -0.0000000000000000000, -0.0000000000000000000, -1.000000000000000000 ) ) ;
#121 = DIRECTION ( 'NONE',  ( 1.000000000000000000, 0.0000000000000000000, 0.0000000000000000000 ) ) ;
#122 = ORIENTED_EDGE ( 'NONE', *, *, #61, .F. ) ;
#123 =( CONVERSION_BASED_UNIT ( 'INCH', #91 ) LENGTH_UNIT ( ) NAMED_UNIT ( #149 ) );
#124 = ADVANCED_BREP_SHAPE_REPRESENTATION ( 'LPSS16-12', ( #15, #81 ), #74 ) ;
#125 = ORIENTED_EDGE ( 'NONE', *, *, #77, .F. ) ;
#126 = PRESENTATION_STYLE_ASSIGNMENT (( #111 ) ) ;
#127 = STYLED_ITEM ( 'NONE', ( #126 ), #124 ) ;
#128 = FACE_OUTER_BOUND ( 'NONE', #140, .T. ) ;
#129 = ORIENTED_EDGE ( 'NONE', *, *, #90, .T. ) ;
#130 = ADVANCED_FACE ( 'NONE', ( #118 ), #138, .T. ) ;
#131 = SURFACE_STYLE_USAGE ( .BOTH. , #49 ) ;
#132 = CARTESIAN_POINT ( 'NONE',  ( 0.0000000000000000000, 0.0000000000000000000, 6.000000000000000900 ) ) ;
#133 = LENGTH_MEASURE_WITH_UNIT ( LENGTH_MEASURE( 0.02539999999999999900 ), #53 );
#134 = CARTESIAN_POINT ( 'NONE',  ( 0.0000000000000000000, 0.0000000000000000000, 6.000000000000000900 ) ) ;
#135 = CARTESIAN_POINT ( 'NONE',  ( 0.0000000000000000000, 0.0000000000000000000, 6.000000000000000900 ) ) ;
#136 =( CONVERSION_BASED_UNIT ( 'INCH', #133 ) LENGTH_UNIT ( ) NAMED_UNIT ( #56 ) );
#137 =( NAMED_UNIT ( * ) SI_UNIT ( $, .STERADIAN. ) SOLID_ANGLE_UNIT ( ) );
#138 = CYLINDRICAL_SURFACE ( 'NONE', #104, 0.4997500000000000300 ) ;
#139 = ADVANCED_FACE ( 'NONE', ( #6 ), #85, .F. ) ;
#140 = EDGE_LOOP ( 'NONE', ( #67, #84 ) ) ;
#141 = CARTESIAN_POINT ( 'NONE',  ( 0.4997500000000000300, 6.120172378738897400E-017, 6.000000000000000900 ) ) ;
#142 =( CONVERSION_BASED_UNIT ( 'INCH', #17 ) LENGTH_UNIT ( ) NAMED_UNIT ( #58 ) );
#143 = DIRECTION ( 'NONE',  ( 1.000000000000000000, 0.0000000000000000000, 0.0000000000000000000 ) ) ;
#144 = DIRECTION ( 'NONE',  ( 1.000000000000000000, 0.0000000000000000000, 0.0000000000000000000 ) ) ;
#145 = DIRECTION ( 'NONE',  ( -1.000000000000000000, 0.0000000000000000000, 0.0000000000000000000 ) ) ;
#146 =( NAMED_UNIT ( * ) SI_UNIT ( $, .STERADIAN. ) SOLID_ANGLE_UNIT ( ) );
#147 = ORIENTED_EDGE ( 'NONE', *, *, #101, .T. ) ;
#148 = DIRECTION ( 'NONE',  ( 0.0000000000000000000, 0.0000000000000000000, 1.000000000000000000 ) ) ;
#149 = DIMENSIONAL_EXPONENTS ( 1.000000000000000000, 0.0000000000000000000, 0.0000000000000000000, 0.0000000000000000000, 0.0000000000000000000, 0.0000000000000000000, 0.0000000000000000000 ) ;
ENDSEC;
END-ISO-10303-21;
