ISO-10303-21;
HEADER;
FILE_DESCRIPTION (( 'STEP AP214' ),
    '1' );
FILE_NAME ('LPSS16-24.step',
    '2017-08-09T17:40:00',
    ( '' ),
    ( '' ),
    'SwSTEP 2.0',
    'SolidWorks 2017',
    '' );
FILE_SCHEMA (( 'AUTOMOTIVE_DESIGN' ));
ENDSEC;

DATA;
#1 =( NAMED_UNIT ( * ) SI_UNIT ( $, .STERADIAN. ) SOLID_ANGLE_UNIT ( ) );
#2 = COLOUR_RGB ( '',0.7921568627450980000, 0.8196078431372548800, 0.9333333333333333500 ) ;
#3 = DIRECTION ( 'NONE',  ( 1.000000000000000000, 0.0000000000000000000, -0.0000000000000000000 ) ) ;
#4 = COLOUR_RGB ( '',0.7921568627450980000, 0.8196078431372548800, 0.9333333333333333500 ) ;
#5 = AXIS2_PLACEMENT_3D ( 'NONE', #11, #148, #80 ) ;
#6 = CARTESIAN_POINT ( 'NONE',  ( 0.0000000000000000000, 0.0000000000000000000, 12.00000000000000200 ) ) ;
#7 = FILL_AREA_STYLE ('',( #84 ) ) ;
#8 = LINE ( 'NONE', #91, #33 ) ;
#9 = ADVANCED_FACE ( 'NONE', ( #93 ), #23, .T. ) ;
#10 = VERTEX_POINT ( 'NONE', #112 ) ;
#11 = CARTESIAN_POINT ( 'NONE',  ( 0.0000000000000000000, 0.0000000000000000000, 12.00000000000000200 ) ) ;
#12 = AXIS2_PLACEMENT_3D ( 'NONE', #106, #40, #117 ) ;
#13 = ORIENTED_EDGE ( 'NONE', *, *, #58, .T. ) ;
#14 = CARTESIAN_POINT ( 'NONE',  ( 0.0000000000000000000, 0.0000000000000000000, 12.00000000000000200 ) ) ;
#15 = DIRECTION ( 'NONE',  ( 1.000000000000000000, 0.0000000000000000000, 0.0000000000000000000 ) ) ;
#16 = EDGE_LOOP ( 'NONE', ( #78, #46, #127, #81 ) ) ;
#17 = FILL_AREA_STYLE ('',( #54 ) ) ;
#18 = UNCERTAINTY_MEASURE_WITH_UNIT (LENGTH_MEASURE( 1.000000000000000100E-005 ), #141, 'distance_accuracy_value', 'NONE');
#19 = CARTESIAN_POINT ( 'NONE',  ( 0.0000000000000000000, 0.0000000000000000000, 12.00000000000000200 ) ) ;
#20 = ADVANCED_FACE ( 'NONE', ( #68 ), #90, .T. ) ;
#21 = SURFACE_SIDE_STYLE ('',( #120 ) ) ;
#22 = ORIENTED_EDGE ( 'NONE', *, *, #53, .F. ) ;
#23 = PLANE ( 'NONE',  #5 ) ;
#24 = AXIS2_PLACEMENT_3D ( 'NONE', #43, #56, #135 ) ;
#25 = DIRECTION ( 'NONE',  ( -0.0000000000000000000, -0.0000000000000000000, -1.000000000000000000 ) ) ;
#26 = EDGE_CURVE ( 'NONE', #144, #132, #124, .T. ) ;
#27 = DIRECTION ( 'NONE',  ( -0.0000000000000000000, -0.0000000000000000000, -1.000000000000000000 ) ) ;
#28 = DIRECTION ( 'NONE',  ( 0.0000000000000000000, 0.0000000000000000000, 1.000000000000000000 ) ) ;
#29 = SURFACE_STYLE_FILL_AREA ( #7 ) ;
#30 = PRODUCT_DEFINITION ( 'UNKNOWN', '', #39, #126 ) ;
#31 = DIRECTION ( 'NONE',  ( 1.000000000000000000, 0.0000000000000000000, 0.0000000000000000000 ) ) ;
#32 =( LENGTH_UNIT ( ) NAMED_UNIT ( * ) SI_UNIT ( $, .METRE. ) );
#33 = VECTOR ( 'NONE', #27, 39.37007874015748100 ) ;
#34 = DIRECTION ( 'NONE',  ( -0.0000000000000000000, -0.0000000000000000000, -1.000000000000000000 ) ) ;
#35 = EDGE_CURVE ( 'NONE', #10, #105, #37, .T. ) ;
#36 = PRODUCT ( 'LPSS16-24', 'LPSS16-24', '', ( #67 ) ) ;
#37 = CIRCLE ( 'NONE', #12, 0.4997500000000000300 ) ;
#38 = CARTESIAN_POINT ( 'NONE',  ( 0.4997500000000000300, 6.120172378738897400E-017, 12.00000000000000200 ) ) ;
#39 = PRODUCT_DEFINITION_FORMATION_WITH_SPECIFIED_SOURCE ( 'ANY', '', #36, .NOT_KNOWN. ) ;
#40 = DIRECTION ( 'NONE',  ( 0.0000000000000000000, 0.0000000000000000000, 1.000000000000000000 ) ) ;
#41 = ORIENTED_EDGE ( 'NONE', *, *, #26, .T. ) ;
#42 = SURFACE_SIDE_STYLE ('',( #29 ) ) ;
#43 = CARTESIAN_POINT ( 'NONE',  ( 0.0000000000000000000, 0.0000000000000000000, 0.0000000000000000000 ) ) ;
#44 =( NAMED_UNIT ( * ) PLANE_ANGLE_UNIT ( ) SI_UNIT ( $, .RADIAN. ) );
#45 = EDGE_CURVE ( 'NONE', #144, #105, #8, .T. ) ;
#46 = ORIENTED_EDGE ( 'NONE', *, *, #119, .F. ) ;
#47 = CYLINDRICAL_SURFACE ( 'NONE', #76, 0.4997500000000000300 ) ;
#48 = UNCERTAINTY_MEASURE_WITH_UNIT (LENGTH_MEASURE( 1.000000000000000100E-005 ), #55, 'distance_accuracy_value', 'NONE');
#49 = PRODUCT_RELATED_PRODUCT_CATEGORY ( 'part', '', ( #36 ) ) ;
#50 = EDGE_LOOP ( 'NONE', ( #111, #102 ) ) ;
#51 = PLANE ( 'NONE',  #101 ) ;
#52 = CLOSED_SHELL ( 'NONE', ( #66, #20, #9, #109 ) ) ;
#53 = EDGE_CURVE ( 'NONE', #132, #10, #64, .T. ) ;
#54 = FILL_AREA_STYLE_COLOUR ( '', #4 ) ;
#55 =( CONVERSION_BASED_UNIT ( 'INCH', #130 ) LENGTH_UNIT ( ) NAMED_UNIT ( #98 ) );
#56 = DIRECTION ( 'NONE',  ( 0.0000000000000000000, 0.0000000000000000000, 1.000000000000000000 ) ) ;
#57 = LENGTH_MEASURE_WITH_UNIT ( LENGTH_MEASURE( 0.02539999999999999900 ), #32 );
#58 = EDGE_CURVE ( 'NONE', #105, #10, #143, .T. ) ;
#59 =( LENGTH_UNIT ( ) NAMED_UNIT ( * ) SI_UNIT ( $, .METRE. ) );
#60 = SHAPE_DEFINITION_REPRESENTATION ( #63, #72 ) ;
#61 = CARTESIAN_POINT ( 'NONE',  ( 0.0000000000000000000, 0.0000000000000000000, -12.00000000000000200 ) ) ;
#62 = MANIFOLD_SOLID_BREP ( 'Boss-Extrude1', #52 ) ;
#63 = PRODUCT_DEFINITION_SHAPE ( 'NONE', 'NONE',  #30 ) ;
#64 = LINE ( 'NONE', #115, #118 ) ;
#65 =( NAMED_UNIT ( * ) SI_UNIT ( $, .STERADIAN. ) SOLID_ANGLE_UNIT ( ) );
#66 = ADVANCED_FACE ( 'NONE', ( #86 ), #47, .T. ) ;
#67 = PRODUCT_CONTEXT ( 'NONE', #85, 'mechanical' ) ;
#68 = FACE_OUTER_BOUND ( 'NONE', #16, .T. ) ;
#69 = EDGE_LOOP ( 'NONE', ( #73, #41 ) ) ;
#70 =( NAMED_UNIT ( * ) PLANE_ANGLE_UNIT ( ) SI_UNIT ( $, .RADIAN. ) );
#71 = DIRECTION ( 'NONE',  ( 0.0000000000000000000, 0.0000000000000000000, 1.000000000000000000 ) ) ;
#72 = ADVANCED_BREP_SHAPE_REPRESENTATION ( 'LPSS16-24', ( #62, #24 ), #108 ) ;
#73 = ORIENTED_EDGE ( 'NONE', *, *, #119, .T. ) ;
#74 = DIMENSIONAL_EXPONENTS ( 1.000000000000000000, 0.0000000000000000000, 0.0000000000000000000, 0.0000000000000000000, 0.0000000000000000000, 0.0000000000000000000, 0.0000000000000000000 ) ;
#75 = FACE_OUTER_BOUND ( 'NONE', #50, .T. ) ;
#76 = AXIS2_PLACEMENT_3D ( 'NONE', #14, #25, #103 ) ;
#77 = APPLICATION_PROTOCOL_DEFINITION ( 'draft international standard', 'automotive_design', 1998, #85 ) ;
#78 = ORIENTED_EDGE ( 'NONE', *, *, #45, .F. ) ;
#79 = APPLICATION_PROTOCOL_DEFINITION ( 'draft international standard', 'automotive_design', 1998, #146 ) ;
#80 = DIRECTION ( 'NONE',  ( 1.000000000000000000, 0.0000000000000000000, -0.0000000000000000000 ) ) ;
#81 = ORIENTED_EDGE ( 'NONE', *, *, #35, .T. ) ;
#82 = DIMENSIONAL_EXPONENTS ( 1.000000000000000000, 0.0000000000000000000, 0.0000000000000000000, 0.0000000000000000000, 0.0000000000000000000, 0.0000000000000000000, 0.0000000000000000000 ) ;
#83 = DIRECTION ( 'NONE',  ( 0.0000000000000000000, 0.0000000000000000000, 1.000000000000000000 ) ) ;
#84 = FILL_AREA_STYLE_COLOUR ( '', #2 ) ;
#85 = APPLICATION_CONTEXT ( 'automotive_design' ) ;
#86 = FACE_OUTER_BOUND ( 'NONE', #140, .T. ) ;
#87 = PRESENTATION_STYLE_ASSIGNMENT (( #97 ) ) ;
#88 = AXIS2_PLACEMENT_3D ( 'NONE', #92, #28, #107 ) ;
#89 = DIRECTION ( 'NONE',  ( -0.0000000000000000000, -0.0000000000000000000, -1.000000000000000000 ) ) ;
#90 = CYLINDRICAL_SURFACE ( 'NONE', #96, 0.4997500000000000300 ) ;
#91 = CARTESIAN_POINT ( 'NONE',  ( 0.4997500000000000300, 6.120172378738897400E-017, 12.00000000000000200 ) ) ;
#92 = CARTESIAN_POINT ( 'NONE',  ( 0.0000000000000000000, 0.0000000000000000000, -12.00000000000000200 ) ) ;
#93 = FACE_OUTER_BOUND ( 'NONE', #69, .T. ) ;
#94 = UNCERTAINTY_MEASURE_WITH_UNIT (LENGTH_MEASURE( 1.000000000000000100E-005 ), #110, 'distance_accuracy_value', 'NONE');
#95 = DIRECTION ( 'NONE',  ( 0.0000000000000000000, 0.0000000000000000000, 1.000000000000000000 ) ) ;
#96 = AXIS2_PLACEMENT_3D ( 'NONE', #100, #34, #137 ) ;
#97 = SURFACE_STYLE_USAGE ( .BOTH. , #21 ) ;
#98 = DIMENSIONAL_EXPONENTS ( 1.000000000000000000, 0.0000000000000000000, 0.0000000000000000000, 0.0000000000000000000, 0.0000000000000000000, 0.0000000000000000000, 0.0000000000000000000 ) ;
#99 = ORIENTED_EDGE ( 'NONE', *, *, #45, .T. ) ;
#100 = CARTESIAN_POINT ( 'NONE',  ( 0.0000000000000000000, 0.0000000000000000000, 12.00000000000000200 ) ) ;
#101 = AXIS2_PLACEMENT_3D ( 'NONE', #61, #71, #3 ) ;
#102 = ORIENTED_EDGE ( 'NONE', *, *, #58, .F. ) ;
#103 = DIRECTION ( 'NONE',  ( -1.000000000000000000, 0.0000000000000000000, 0.0000000000000000000 ) ) ;
#104 = AXIS2_PLACEMENT_3D ( 'NONE', #19, #95, #31 ) ;
#105 = VERTEX_POINT ( 'NONE', #116 ) ;
#106 = CARTESIAN_POINT ( 'NONE',  ( 0.0000000000000000000, 0.0000000000000000000, -12.00000000000000200 ) ) ;
#107 = DIRECTION ( 'NONE',  ( 1.000000000000000000, 0.0000000000000000000, 0.0000000000000000000 ) ) ;
#108 =( GEOMETRIC_REPRESENTATION_CONTEXT ( 3 ) GLOBAL_UNCERTAINTY_ASSIGNED_CONTEXT ( ( #48 ) ) GLOBAL_UNIT_ASSIGNED_CONTEXT ( ( #55, #134, #65 ) ) REPRESENTATION_CONTEXT ( 'NONE', 'WORKASPACE' ) );
#109 = ADVANCED_FACE ( 'NONE', ( #75 ), #51, .F. ) ;
#110 =( CONVERSION_BASED_UNIT ( 'INCH', #57 ) LENGTH_UNIT ( ) NAMED_UNIT ( #82 ) );
#111 = ORIENTED_EDGE ( 'NONE', *, *, #35, .F. ) ;
#112 = CARTESIAN_POINT ( 'NONE',  ( -0.4997500000000000300, 0.0000000000000000000, -12.00000000000000200 ) ) ;
#113 = LENGTH_MEASURE_WITH_UNIT ( LENGTH_MEASURE( 0.02539999999999999900 ), #59 );
#114 = AXIS2_PLACEMENT_3D ( 'NONE', #6, #83, #15 ) ;
#115 = CARTESIAN_POINT ( 'NONE',  ( -0.4997500000000000300, 0.0000000000000000000, 12.00000000000000200 ) ) ;
#116 = CARTESIAN_POINT ( 'NONE',  ( 0.4997500000000000300, 6.120172378738897400E-017, -12.00000000000000200 ) ) ;
#117 = DIRECTION ( 'NONE',  ( 1.000000000000000000, 0.0000000000000000000, 0.0000000000000000000 ) ) ;
#118 = VECTOR ( 'NONE', #89, 39.37007874015748100 ) ;
#119 = EDGE_CURVE ( 'NONE', #132, #144, #138, .T. ) ;
#120 = SURFACE_STYLE_FILL_AREA ( #17 ) ;
#121 =( LENGTH_UNIT ( ) NAMED_UNIT ( * ) SI_UNIT ( $, .METRE. ) );
#122 =( GEOMETRIC_REPRESENTATION_CONTEXT ( 3 ) GLOBAL_UNCERTAINTY_ASSIGNED_CONTEXT ( ( #18 ) ) GLOBAL_UNIT_ASSIGNED_CONTEXT ( ( #141, #70, #1 ) ) REPRESENTATION_CONTEXT ( 'NONE', 'WORKASPACE' ) );
#123 =( NAMED_UNIT ( * ) SI_UNIT ( $, .STERADIAN. ) SOLID_ANGLE_UNIT ( ) );
#124 = CIRCLE ( 'NONE', #114, 0.4997500000000000300 ) ;
#125 = STYLED_ITEM ( 'NONE', ( #87 ), #72 ) ;
#126 = PRODUCT_DEFINITION_CONTEXT ( 'detailed design', #146, 'design' ) ;
#127 = ORIENTED_EDGE ( 'NONE', *, *, #53, .T. ) ;
#128 = SURFACE_STYLE_USAGE ( .BOTH. , #42 ) ;
#129 = CARTESIAN_POINT ( 'NONE',  ( -0.4997500000000000300, 0.0000000000000000000, 12.00000000000000200 ) ) ;
#130 = LENGTH_MEASURE_WITH_UNIT ( LENGTH_MEASURE( 0.02539999999999999900 ), #121 );
#131 = MECHANICAL_DESIGN_GEOMETRIC_PRESENTATION_REPRESENTATION (  '', ( #145 ), #122 ) ;
#132 = VERTEX_POINT ( 'NONE', #129 ) ;
#133 = PRESENTATION_LAYER_ASSIGNMENT (  '', '', ( #125 ) ) ;
#134 =( NAMED_UNIT ( * ) PLANE_ANGLE_UNIT ( ) SI_UNIT ( $, .RADIAN. ) );
#135 = DIRECTION ( 'NONE',  ( 1.000000000000000000, 0.0000000000000000000, 0.0000000000000000000 ) ) ;
#136 = ORIENTED_EDGE ( 'NONE', *, *, #26, .F. ) ;
#137 = DIRECTION ( 'NONE',  ( -1.000000000000000000, 0.0000000000000000000, 0.0000000000000000000 ) ) ;
#138 = CIRCLE ( 'NONE', #104, 0.4997500000000000300 ) ;
#139 = PRESENTATION_LAYER_ASSIGNMENT (  '', '', ( #145 ) ) ;
#140 = EDGE_LOOP ( 'NONE', ( #136, #99, #13, #22 ) ) ;
#141 =( CONVERSION_BASED_UNIT ( 'INCH', #113 ) LENGTH_UNIT ( ) NAMED_UNIT ( #74 ) );
#142 = MECHANICAL_DESIGN_GEOMETRIC_PRESENTATION_REPRESENTATION (  '', ( #125 ), #149 ) ;
#143 = CIRCLE ( 'NONE', #88, 0.4997500000000000300 ) ;
#144 = VERTEX_POINT ( 'NONE', #38 ) ;
#145 = STYLED_ITEM ( 'NONE', ( #147 ), #62 ) ;
#146 = APPLICATION_CONTEXT ( 'automotive_design' ) ;
#147 = PRESENTATION_STYLE_ASSIGNMENT (( #128 ) ) ;
#148 = DIRECTION ( 'NONE',  ( 0.0000000000000000000, 0.0000000000000000000, 1.000000000000000000 ) ) ;
#149 =( GEOMETRIC_REPRESENTATION_CONTEXT ( 3 ) GLOBAL_UNCERTAINTY_ASSIGNED_CONTEXT ( ( #94 ) ) GLOBAL_UNIT_ASSIGNED_CONTEXT ( ( #110, #44, #123 ) ) REPRESENTATION_CONTEXT ( 'NONE', 'WORKASPACE' ) );
ENDSEC;
END-ISO-10303-21;
