ISO-10303-21;
HEADER;
FILE_DESCRIPTION (( 'STEP AP214' ),
    '1' );
FILE_NAME ('LPSS16-36.step',
    '2017-08-09T17:40:16',
    ( '' ),
    ( '' ),
    'SwSTEP 2.0',
    'SolidWorks 2017',
    '' );
FILE_SCHEMA (( 'AUTOMOTIVE_DESIGN' ));
ENDSEC;

DATA;
#1 = FACE_OUTER_BOUND ( 'NONE', #113, .T. ) ;
#2 = EDGE_LOOP ( 'NONE', ( #96, #136, #125, #41 ) ) ;
#3 = STYLED_ITEM ( 'NONE', ( #91 ), #71 ) ;
#4 = ADVANCED_FACE ( 'NONE', ( #50 ), #115, .T. ) ;
#5 = FILL_AREA_STYLE_COLOUR ( '', #14 ) ;
#6 = EDGE_CURVE ( 'NONE', #102, #80, #89, .T. ) ;
#7 = PLANE ( 'NONE',  #121 ) ;
#8 = MANIFOLD_SOLID_BREP ( 'Boss-Extrude1', #75 ) ;
#9 = DIRECTION ( 'NONE',  ( 1.000000000000000000, 0.0000000000000000000, 0.0000000000000000000 ) ) ;
#10 =( CONVERSION_BASED_UNIT ( 'INCH', #120 ) LENGTH_UNIT ( ) NAMED_UNIT ( #27 ) );
#11 = UNCERTAINTY_MEASURE_WITH_UNIT (LENGTH_MEASURE( 1.000000000000000100E-005 ), #131, 'distance_accuracy_value', 'NONE');
#12 = PRESENTATION_LAYER_ASSIGNMENT (  '', '', ( #3 ) ) ;
#13 = EDGE_CURVE ( 'NONE', #37, #65, #31, .T. ) ;
#14 = COLOUR_RGB ( '',0.7921568627450980000, 0.8196078431372548800, 0.9333333333333333500 ) ;
#15 = CARTESIAN_POINT ( 'NONE',  ( 0.0000000000000000000, 0.0000000000000000000, -18.00000000000000000 ) ) ;
#16 = COLOUR_RGB ( '',0.7921568627450980000, 0.8196078431372548800, 0.9333333333333333500 ) ;
#17 = CARTESIAN_POINT ( 'NONE',  ( 0.4997500000000000300, 6.120172378738898600E-017, 18.00000000000000000 ) ) ;
#18 = CARTESIAN_POINT ( 'NONE',  ( 0.0000000000000000000, 0.0000000000000000000, -18.00000000000000000 ) ) ;
#19 = CARTESIAN_POINT ( 'NONE',  ( 0.0000000000000000000, 0.0000000000000000000, -18.00000000000000000 ) ) ;
#20 = MECHANICAL_DESIGN_GEOMETRIC_PRESENTATION_REPRESENTATION (  '', ( #3 ), #26 ) ;
#21 =( CONVERSION_BASED_UNIT ( 'INCH', #46 ) LENGTH_UNIT ( ) NAMED_UNIT ( #43 ) );
#22 =( NAMED_UNIT ( * ) SI_UNIT ( $, .STERADIAN. ) SOLID_ANGLE_UNIT ( ) );
#23 = EDGE_CURVE ( 'NONE', #65, #80, #53, .T. ) ;
#24 = LENGTH_MEASURE_WITH_UNIT ( LENGTH_MEASURE( 0.02539999999999999900 ), #59 );
#25 = ORIENTED_EDGE ( 'NONE', *, *, #23, .T. ) ;
#26 =( GEOMETRIC_REPRESENTATION_CONTEXT ( 3 ) GLOBAL_UNCERTAINTY_ASSIGNED_CONTEXT ( ( #100 ) ) GLOBAL_UNIT_ASSIGNED_CONTEXT ( ( #10, #98, #22 ) ) REPRESENTATION_CONTEXT ( 'NONE', 'WORKASPACE' ) );
#27 = DIMENSIONAL_EXPONENTS ( 1.000000000000000000, 0.0000000000000000000, 0.0000000000000000000, 0.0000000000000000000, 0.0000000000000000000, 0.0000000000000000000, 0.0000000000000000000 ) ;
#28 = DIRECTION ( 'NONE',  ( 1.000000000000000000, 0.0000000000000000000, 0.0000000000000000000 ) ) ;
#29 = DIRECTION ( 'NONE',  ( 0.0000000000000000000, 0.0000000000000000000, 1.000000000000000000 ) ) ;
#30 = STYLED_ITEM ( 'NONE', ( #139 ), #8 ) ;
#31 = CIRCLE ( 'NONE', #86, 0.4997500000000000300 ) ;
#32 = EDGE_LOOP ( 'NONE', ( #129, #25, #107, #69 ) ) ;
#33 = DIRECTION ( 'NONE',  ( 1.000000000000000000, 0.0000000000000000000, 0.0000000000000000000 ) ) ;
#34 =( NAMED_UNIT ( * ) SI_UNIT ( $, .STERADIAN. ) SOLID_ANGLE_UNIT ( ) );
#35 = DIRECTION ( 'NONE',  ( 0.0000000000000000000, 0.0000000000000000000, 1.000000000000000000 ) ) ;
#36 = LINE ( 'NONE', #134, #68 ) ;
#37 = VERTEX_POINT ( 'NONE', #60 ) ;
#38 = UNCERTAINTY_MEASURE_WITH_UNIT (LENGTH_MEASURE( 1.000000000000000100E-005 ), #21, 'distance_accuracy_value', 'NONE');
#39 = AXIS2_PLACEMENT_3D ( 'NONE', #15, #105, #28 ) ;
#40 = CIRCLE ( 'NONE', #128, 0.4997500000000000300 ) ;
#41 = ORIENTED_EDGE ( 'NONE', *, *, #6, .T. ) ;
#42 = DIMENSIONAL_EXPONENTS ( 1.000000000000000000, 0.0000000000000000000, 0.0000000000000000000, 0.0000000000000000000, 0.0000000000000000000, 0.0000000000000000000, 0.0000000000000000000 ) ;
#43 = DIMENSIONAL_EXPONENTS ( 1.000000000000000000, 0.0000000000000000000, 0.0000000000000000000, 0.0000000000000000000, 0.0000000000000000000, 0.0000000000000000000, 0.0000000000000000000 ) ;
#44 = SURFACE_SIDE_STYLE ('',( #62 ) ) ;
#45 = CARTESIAN_POINT ( 'NONE',  ( 0.0000000000000000000, 0.0000000000000000000, 18.00000000000000000 ) ) ;
#46 = LENGTH_MEASURE_WITH_UNIT ( LENGTH_MEASURE( 0.02539999999999999900 ), #97 );
#47 = DIRECTION ( 'NONE',  ( 1.000000000000000000, 0.0000000000000000000, -0.0000000000000000000 ) ) ;
#48 = FILL_AREA_STYLE_COLOUR ( '', #16 ) ;
#49 = APPLICATION_PROTOCOL_DEFINITION ( 'draft international standard', 'automotive_design', 1998, #63 ) ;
#50 = FACE_OUTER_BOUND ( 'NONE', #2, .T. ) ;
#51 = PRODUCT_CONTEXT ( 'NONE', #63, 'mechanical' ) ;
#52 = AXIS2_PLACEMENT_3D ( 'NONE', #54, #84, #70 ) ;
#53 = LINE ( 'NONE', #17, #101 ) ;
#54 = CARTESIAN_POINT ( 'NONE',  ( 0.0000000000000000000, 0.0000000000000000000, 18.00000000000000000 ) ) ;
#55 = SURFACE_STYLE_FILL_AREA ( #135 ) ;
#56 = AXIS2_PLACEMENT_3D ( 'NONE', #77, #35, #119 ) ;
#57 = DIRECTION ( 'NONE',  ( -0.0000000000000000000, -0.0000000000000000000, -1.000000000000000000 ) ) ;
#58 = ADVANCED_FACE ( 'NONE', ( #124 ), #130, .T. ) ;
#59 =( LENGTH_UNIT ( ) NAMED_UNIT ( * ) SI_UNIT ( $, .METRE. ) );
#60 = CARTESIAN_POINT ( 'NONE',  ( -0.4997500000000000300, 0.0000000000000000000, 18.00000000000000000 ) ) ;
#61 = PRESENTATION_LAYER_ASSIGNMENT (  '', '', ( #30 ) ) ;
#62 = SURFACE_STYLE_FILL_AREA ( #116 ) ;
#63 = APPLICATION_CONTEXT ( 'automotive_design' ) ;
#64 = APPLICATION_PROTOCOL_DEFINITION ( 'draft international standard', 'automotive_design', 1998, #127 ) ;
#65 = VERTEX_POINT ( 'NONE', #133 ) ;
#66 = PRODUCT_DEFINITION ( 'UNKNOWN', '', #78, #112 ) ;
#67 = MECHANICAL_DESIGN_GEOMETRIC_PRESENTATION_REPRESENTATION (  '', ( #30 ), #82 ) ;
#68 = VECTOR ( 'NONE', #108, 39.37007874015748100 ) ;
#69 = ORIENTED_EDGE ( 'NONE', *, *, #132, .F. ) ;
#70 = DIRECTION ( 'NONE',  ( -1.000000000000000000, 0.0000000000000000000, 0.0000000000000000000 ) ) ;
#71 = ADVANCED_BREP_SHAPE_REPRESENTATION ( 'LPSS16-36', ( #8, #56 ), #126 ) ;
#72 =( NAMED_UNIT ( * ) PLANE_ANGLE_UNIT ( ) SI_UNIT ( $, .RADIAN. ) );
#73 = DIRECTION ( 'NONE',  ( 0.0000000000000000000, 0.0000000000000000000, 1.000000000000000000 ) ) ;
#74 = CIRCLE ( 'NONE', #114, 0.4997500000000000300 ) ;
#75 = CLOSED_SHELL ( 'NONE', ( #142, #4, #58, #104 ) ) ;
#76 = DIRECTION ( 'NONE',  ( -0.0000000000000000000, -0.0000000000000000000, -1.000000000000000000 ) ) ;
#77 = CARTESIAN_POINT ( 'NONE',  ( 0.0000000000000000000, 0.0000000000000000000, 0.0000000000000000000 ) ) ;
#78 = PRODUCT_DEFINITION_FORMATION_WITH_SPECIFIED_SOURCE ( 'ANY', '', #92, .NOT_KNOWN. ) ;
#79 = SURFACE_SIDE_STYLE ('',( #55 ) ) ;
#80 = VERTEX_POINT ( 'NONE', #94 ) ;
#81 = CYLINDRICAL_SURFACE ( 'NONE', #138, 0.4997500000000000300 ) ;
#82 =( GEOMETRIC_REPRESENTATION_CONTEXT ( 3 ) GLOBAL_UNCERTAINTY_ASSIGNED_CONTEXT ( ( #11 ) ) GLOBAL_UNIT_ASSIGNED_CONTEXT ( ( #131, #72, #143 ) ) REPRESENTATION_CONTEXT ( 'NONE', 'WORKASPACE' ) );
#83 = PRODUCT_RELATED_PRODUCT_CATEGORY ( 'part', '', ( #92 ) ) ;
#84 = DIRECTION ( 'NONE',  ( -0.0000000000000000000, -0.0000000000000000000, -1.000000000000000000 ) ) ;
#85 = CARTESIAN_POINT ( 'NONE',  ( -0.4997500000000000300, 0.0000000000000000000, -18.00000000000000000 ) ) ;
#86 = AXIS2_PLACEMENT_3D ( 'NONE', #106, #29, #117 ) ;
#87 = DIRECTION ( 'NONE',  ( -1.000000000000000000, 0.0000000000000000000, 0.0000000000000000000 ) ) ;
#88 = DIRECTION ( 'NONE',  ( 0.0000000000000000000, 0.0000000000000000000, 1.000000000000000000 ) ) ;
#89 = CIRCLE ( 'NONE', #39, 0.4997500000000000300 ) ;
#90 =( LENGTH_UNIT ( ) NAMED_UNIT ( * ) SI_UNIT ( $, .METRE. ) );
#91 = PRESENTATION_STYLE_ASSIGNMENT (( #147 ) ) ;
#92 = PRODUCT ( 'LPSS16-36', 'LPSS16-36', '', ( #51 ) ) ;
#93 = ORIENTED_EDGE ( 'NONE', *, *, #148, .T. ) ;
#94 = CARTESIAN_POINT ( 'NONE',  ( 0.4997500000000000300, 6.120172378738898600E-017, -18.00000000000000000 ) ) ;
#95 = CARTESIAN_POINT ( 'NONE',  ( 0.0000000000000000000, 0.0000000000000000000, 18.00000000000000000 ) ) ;
#96 = ORIENTED_EDGE ( 'NONE', *, *, #23, .F. ) ;
#97 =( LENGTH_UNIT ( ) NAMED_UNIT ( * ) SI_UNIT ( $, .METRE. ) );
#98 =( NAMED_UNIT ( * ) PLANE_ANGLE_UNIT ( ) SI_UNIT ( $, .RADIAN. ) );
#99 = SHAPE_DEFINITION_REPRESENTATION ( #140, #71 ) ;
#100 = UNCERTAINTY_MEASURE_WITH_UNIT (LENGTH_MEASURE( 1.000000000000000100E-005 ), #10, 'distance_accuracy_value', 'NONE');
#101 = VECTOR ( 'NONE', #57, 39.37007874015748100 ) ;
#102 = VERTEX_POINT ( 'NONE', #85 ) ;
#103 = FACE_OUTER_BOUND ( 'NONE', #32, .T. ) ;
#104 = ADVANCED_FACE ( 'NONE', ( #1 ), #7, .F. ) ;
#105 = DIRECTION ( 'NONE',  ( 0.0000000000000000000, 0.0000000000000000000, 1.000000000000000000 ) ) ;
#106 = CARTESIAN_POINT ( 'NONE',  ( 0.0000000000000000000, 0.0000000000000000000, 18.00000000000000000 ) ) ;
#107 = ORIENTED_EDGE ( 'NONE', *, *, #141, .T. ) ;
#108 = DIRECTION ( 'NONE',  ( -0.0000000000000000000, -0.0000000000000000000, -1.000000000000000000 ) ) ;
#109 = AXIS2_PLACEMENT_3D ( 'NONE', #45, #73, #144 ) ;
#110 = DIRECTION ( 'NONE',  ( 0.0000000000000000000, 0.0000000000000000000, 1.000000000000000000 ) ) ;
#111 =( NAMED_UNIT ( * ) PLANE_ANGLE_UNIT ( ) SI_UNIT ( $, .RADIAN. ) );
#112 = PRODUCT_DEFINITION_CONTEXT ( 'detailed design', #127, 'design' ) ;
#113 = EDGE_LOOP ( 'NONE', ( #122, #149 ) ) ;
#114 = AXIS2_PLACEMENT_3D ( 'NONE', #19, #110, #33 ) ;
#115 = CYLINDRICAL_SURFACE ( 'NONE', #52, 0.4997500000000000300 ) ;
#116 = FILL_AREA_STYLE ('',( #5 ) ) ;
#117 = DIRECTION ( 'NONE',  ( 1.000000000000000000, 0.0000000000000000000, 0.0000000000000000000 ) ) ;
#118 = DIRECTION ( 'NONE',  ( 0.0000000000000000000, 0.0000000000000000000, 1.000000000000000000 ) ) ;
#119 = DIRECTION ( 'NONE',  ( 1.000000000000000000, 0.0000000000000000000, 0.0000000000000000000 ) ) ;
#120 = LENGTH_MEASURE_WITH_UNIT ( LENGTH_MEASURE( 0.02539999999999999900 ), #90 );
#121 = AXIS2_PLACEMENT_3D ( 'NONE', #18, #118, #47 ) ;
#122 = ORIENTED_EDGE ( 'NONE', *, *, #6, .F. ) ;
#123 = SURFACE_STYLE_USAGE ( .BOTH. , #44 ) ;
#124 = FACE_OUTER_BOUND ( 'NONE', #145, .T. ) ;
#125 = ORIENTED_EDGE ( 'NONE', *, *, #132, .T. ) ;
#126 =( GEOMETRIC_REPRESENTATION_CONTEXT ( 3 ) GLOBAL_UNCERTAINTY_ASSIGNED_CONTEXT ( ( #38 ) ) GLOBAL_UNIT_ASSIGNED_CONTEXT ( ( #21, #111, #34 ) ) REPRESENTATION_CONTEXT ( 'NONE', 'WORKASPACE' ) );
#127 = APPLICATION_CONTEXT ( 'automotive_design' ) ;
#128 = AXIS2_PLACEMENT_3D ( 'NONE', #146, #88, #9 ) ;
#129 = ORIENTED_EDGE ( 'NONE', *, *, #148, .F. ) ;
#130 = PLANE ( 'NONE',  #109 ) ;
#131 =( CONVERSION_BASED_UNIT ( 'INCH', #24 ) LENGTH_UNIT ( ) NAMED_UNIT ( #42 ) );
#132 = EDGE_CURVE ( 'NONE', #37, #102, #36, .T. ) ;
#133 = CARTESIAN_POINT ( 'NONE',  ( 0.4997500000000000300, 6.120172378738898600E-017, 18.00000000000000000 ) ) ;
#134 = CARTESIAN_POINT ( 'NONE',  ( -0.4997500000000000300, 0.0000000000000000000, 18.00000000000000000 ) ) ;
#135 = FILL_AREA_STYLE ('',( #48 ) ) ;
#136 = ORIENTED_EDGE ( 'NONE', *, *, #13, .F. ) ;
#137 = ORIENTED_EDGE ( 'NONE', *, *, #13, .T. ) ;
#138 = AXIS2_PLACEMENT_3D ( 'NONE', #95, #76, #87 ) ;
#139 = PRESENTATION_STYLE_ASSIGNMENT (( #123 ) ) ;
#140 = PRODUCT_DEFINITION_SHAPE ( 'NONE', 'NONE',  #66 ) ;
#141 = EDGE_CURVE ( 'NONE', #80, #102, #74, .T. ) ;
#142 = ADVANCED_FACE ( 'NONE', ( #103 ), #81, .T. ) ;
#143 =( NAMED_UNIT ( * ) SI_UNIT ( $, .STERADIAN. ) SOLID_ANGLE_UNIT ( ) );
#144 = DIRECTION ( 'NONE',  ( 1.000000000000000000, 0.0000000000000000000, -0.0000000000000000000 ) ) ;
#145 = EDGE_LOOP ( 'NONE', ( #137, #93 ) ) ;
#146 = CARTESIAN_POINT ( 'NONE',  ( 0.0000000000000000000, 0.0000000000000000000, 18.00000000000000000 ) ) ;
#147 = SURFACE_STYLE_USAGE ( .BOTH. , #79 ) ;
#148 = EDGE_CURVE ( 'NONE', #65, #37, #40, .T. ) ;
#149 = ORIENTED_EDGE ( 'NONE', *, *, #141, .F. ) ;
ENDSEC;
END-ISO-10303-21;
