ISO-10303-21;
HEADER;
FILE_DESCRIPTION (( 'STEP AP214' ),
    '1' );
FILE_NAME ('LR4-BW.step',
    '2018-07-03T11:56:13',
    ( '' ),
    ( '' ),
    'SwSTEP 2.0',
    'SolidWorks 2017',
    '' );
FILE_SCHEMA (( 'AUTOMOTIVE_DESIGN' ));
ENDSEC;

DATA;
#1 = MANIFOLD_SOLID_BREP ( 'brep_1', #27 ) ;
#2 = CIRCLE ( 'NONE', #150, 0.7874015748031497600 ) ;
#3 = DIRECTION ( 'NONE',  ( 1.000000000000000000, 0.0000000000000000000, 0.0000000000000000000 ) ) ;
#4 = ORIENTED_EDGE ( 'NONE', *, *, #173, .T. ) ;
#5 = DIRECTION ( 'NONE',  ( 0.0000000000000000000, -1.000000000000000000, -3.642463991552351500E-016 ) ) ;
#6 = CARTESIAN_POINT ( 'NONE',  ( 0.7874015748031498700, -1.365923996832131900E-016, -5.088463413835078900E-028 ) ) ;
#7 = DIRECTION ( 'NONE',  ( -1.000000000000000000, 0.0000000000000000000, 0.0000000000000000000 ) ) ;
#8 = CYLINDRICAL_SURFACE ( 'NONE', #208, 0.7874015748031497600 ) ;
#9 = EDGE_LOOP ( 'NONE', ( #41, #187, #158, #22, #171 ) ) ;
#10 = CARTESIAN_POINT ( 'NONE',  ( 2.330212815058394800E-016, -0.7874015748031504300, 2.086614173228346300 ) ) ;
#11 = CARTESIAN_POINT ( 'NONE',  ( -1.591929188603911000E-016, 1.365923996832131400E-016, 0.4173228346456693300 ) ) ;
#12 =( CONVERSION_BASED_UNIT ( 'INCH', #116 ) LENGTH_UNIT ( ) NAMED_UNIT ( #113 ) );
#13 = AXIS2_PLACEMENT_3D ( 'NONE', #146, #118, #5 ) ;
#14 =( LENGTH_UNIT ( ) NAMED_UNIT ( * ) SI_UNIT ( $, .METRE. ) );
#15 = ORIENTED_EDGE ( 'NONE', *, *, #165, .F. ) ;
#16 = EDGE_CURVE ( 'NONE', #243, #100, #44, .T. ) ;
#17 = CARTESIAN_POINT ( 'NONE',  ( -0.7381889763779527800, -0.7529527559055118100, 0.4173228346456693300 ) ) ;
#18 = VECTOR ( 'NONE', #218, 39.37007874015748100 ) ;
#19 = CARTESIAN_POINT ( 'NONE',  ( 0.7874015748031498700, -1.365923996832131900E-016, -5.088463413835078900E-028 ) ) ;
#20 = EDGE_CURVE ( 'NONE', #23, #100, #180, .T. ) ;
#21 = LINE ( 'NONE', #49, #263 ) ;
#22 = ORIENTED_EDGE ( 'NONE', *, *, #47, .T. ) ;
#23 = VERTEX_POINT ( 'NONE', #183 ) ;
#24 = ADVANCED_FACE ( 'NONE', ( #121 ), #252, .T. ) ;
#25 = DIRECTION ( 'NONE',  ( -4.333422509880754200E-012, -8.018442409830913400E-028, -1.000000000000000000 ) ) ;
#26 = FACE_OUTER_BOUND ( 'NONE', #282, .T. ) ;
#27 = CLOSED_SHELL ( 'NONE', ( #259, #42, #144, #256, #281, #64, #114, #45, #24 ) ) ;
#28 = DIRECTION ( 'NONE',  ( 0.0000000000000000000, 0.8849182223819819200, -0.4657464328326231300 ) ) ;
#29 = CARTESIAN_POINT ( 'NONE',  ( 1.124851792275567000E-016, -1.365923996832131900E-016, -5.088463413835078900E-028 ) ) ;
#30 = DIRECTION ( 'NONE',  ( 0.0000000000000000000, 0.0000000000000000000, 1.000000000000000000 ) ) ;
#31 = EDGE_CURVE ( 'NONE', #87, #38, #141, .T. ) ;
#32 =( LENGTH_UNIT ( ) NAMED_UNIT ( * ) SI_UNIT ( $, .METRE. ) );
#33 =( NAMED_UNIT ( * ) PLANE_ANGLE_UNIT ( ) SI_UNIT ( $, .RADIAN. ) );
#34 = EDGE_CURVE ( 'NONE', #38, #87, #2, .T. ) ;
#35 = DIRECTION ( 'NONE',  ( -0.0000000000000000000, -0.0000000000000000000, -1.000000000000000000 ) ) ;
#36 = ORIENTED_EDGE ( 'NONE', *, *, #237, .T. ) ;
#37 = CYLINDRICAL_SURFACE ( 'NONE', #195, 0.7874015748031497600 ) ;
#38 = VERTEX_POINT ( 'NONE', #19 ) ;
#39 = DIRECTION ( 'NONE',  ( 1.000000000000000000, 0.0000000000000000000, 0.0000000000000000000 ) ) ;
#40 = VECTOR ( 'NONE', #270, 39.37007874015748100 ) ;
#41 = ORIENTED_EDGE ( 'NONE', *, *, #34, .T. ) ;
#42 = ADVANCED_FACE ( 'NONE', ( #26 ), #242, .T. ) ;
#43 = EDGE_CURVE ( 'NONE', #66, #142, #52, .T. ) ;
#44 = CIRCLE ( 'NONE', #109, 0.7381889763779526700 ) ;
#45 = ADVANCED_FACE ( 'NONE', ( #130 ), #275, .F. ) ;
#46 = COLOUR_RGB ( '',0.7921568627450980000, 0.8196078431372548800, 0.9333333333333333500 ) ;
#47 = EDGE_CURVE ( 'NONE', #280, #177, #254, .T. ) ;
#48 = CARTESIAN_POINT ( 'NONE',  ( 2.330212815058394300E-016, -0.7874015748031498700, 2.086614173228346700 ) ) ;
#49 = CARTESIAN_POINT ( 'NONE',  ( -0.7381889763779527800, 1.365923996832131400E-016, 0.4173228346456693300 ) ) ;
#50 = EDGE_CURVE ( 'NONE', #177, #66, #184, .T. ) ;
#51 = CARTESIAN_POINT ( 'NONE',  ( 1.365923996832131600E-016, -1.365923996832131900E-016, 2.086614173228346300 ) ) ;
#52 = CIRCLE ( 'NONE', #125, 0.7874015748031497600 ) ;
#53 = ORIENTED_EDGE ( 'NONE', *, *, #295, .F. ) ;
#54 = CARTESIAN_POINT ( 'NONE',  ( -0.7381889763779527800, 1.365923996832131400E-016, -2.132890321053373600E-013 ) ) ;
#55 = SURFACE_STYLE_USAGE ( .BOTH. , #80 ) ;
#56 = EDGE_CURVE ( 'NONE', #87, #142, #298, .T. ) ;
#57 = DIRECTION ( 'NONE',  ( 1.000000000000000000, 0.0000000000000000000, 0.0000000000000000000 ) ) ;
#58 = FACE_OUTER_BOUND ( 'NONE', #186, .T. ) ;
#59 = DIRECTION ( 'NONE',  ( -0.0000000000000000000, -0.0000000000000000000, -1.000000000000000000 ) ) ;
#60 = DIRECTION ( 'NONE',  ( 0.0000000000000000000, 0.0000000000000000000, -1.000000000000000000 ) ) ;
#61 = ORIENTED_EDGE ( 'NONE', *, *, #43, .F. ) ;
#62 = EDGE_CURVE ( 'NONE', #38, #177, #279, .T. ) ;
#63 = DIRECTION ( 'NONE',  ( 1.000000000000000000, 0.0000000000000000000, 0.0000000000000000000 ) ) ;
#64 = ADVANCED_FACE ( 'NONE', ( #283, #58 ), #162, .T. ) ;
#65 = AXIS2_PLACEMENT_3D ( 'NONE', #90, #253, #79 ) ;
#66 = VERTEX_POINT ( 'NONE', #10 ) ;
#67 = ORIENTED_EDGE ( 'NONE', *, *, #139, .T. ) ;
#68 = PRESENTATION_LAYER_ASSIGNMENT (  '', '', ( #127 ) ) ;
#69 = ORIENTED_EDGE ( 'NONE', *, *, #43, .T. ) ;
#70 = DIRECTION ( 'NONE',  ( -1.000000000000000000, 0.0000000000000000000, 0.0000000000000000000 ) ) ;
#71 = FACE_OUTER_BOUND ( 'NONE', #9, .T. ) ;
#72 = EDGE_LOOP ( 'NONE', ( #233, #166, #117, #149, #69 ) ) ;
#73 = DIRECTION ( 'NONE',  ( 1.000000000000000000, 0.0000000000000000000, 0.0000000000000000000 ) ) ;
#74 = CARTESIAN_POINT ( 'NONE',  ( 1.365923996832131600E-016, -1.331775896911328700E-016, 2.106299212598425000 ) ) ;
#75 = MECHANICAL_DESIGN_GEOMETRIC_PRESENTATION_REPRESENTATION (  '', ( #250 ), #157 ) ;
#76 = CARTESIAN_POINT ( 'NONE',  ( 1.124851792275567000E-016, -1.365923996832131900E-016, 2.086614173228346300 ) ) ;
#77 = LENGTH_MEASURE_WITH_UNIT ( LENGTH_MEASURE( 0.02539999999999999900 ), #274 );
#78 = APPLICATION_CONTEXT ( 'automotive_design' ) ;
#79 = DIRECTION ( 'NONE',  ( 1.000000000000000000, 0.0000000000000000000, 0.0000000000000000000 ) ) ;
#80 = SURFACE_SIDE_STYLE ('',( #287 ) ) ;
#81 =( NAMED_UNIT ( * ) PLANE_ANGLE_UNIT ( ) SI_UNIT ( $, .RADIAN. ) );
#82 = CIRCLE ( 'NONE', #103, 0.7381889763779526700 ) ;
#83 = ORIENTED_EDGE ( 'NONE', *, *, #230, .T. ) ;
#84 = AXIS2_PLACEMENT_3D ( 'NONE', #203, #60, #251 ) ;
#85 = PRODUCT_DEFINITION ( 'UNKNOWN', '', #209, #284 ) ;
#86 = DIRECTION ( 'NONE',  ( 0.0000000000000000000, 0.0000000000000000000, 1.000000000000000000 ) ) ;
#87 = VERTEX_POINT ( 'NONE', #240 ) ;
#88 = AXIS2_PLACEMENT_3D ( 'NONE', #262, #101, #70 ) ;
#89 = CARTESIAN_POINT ( 'NONE',  ( -0.7381889763779527800, 0.0000000000000000000, -2.132589817854709200E-013 ) ) ;
#90 = CARTESIAN_POINT ( 'NONE',  ( 1.124851792275567000E-016, -1.365923996832131900E-016, 2.086614173228346300 ) ) ;
#91 = ORIENTED_EDGE ( 'NONE', *, *, #16, .T. ) ;
#92 = ORIENTED_EDGE ( 'NONE', *, *, #237, .F. ) ;
#93 =( GEOMETRIC_REPRESENTATION_CONTEXT ( 3 ) GLOBAL_UNCERTAINTY_ASSIGNED_CONTEXT ( ( #185 ) ) GLOBAL_UNIT_ASSIGNED_CONTEXT ( ( #223, #247, #174 ) ) REPRESENTATION_CONTEXT ( 'NONE', 'WORKASPACE' ) );
#94 = LINE ( 'NONE', #191, #155 ) ;
#95 = ORIENTED_EDGE ( 'NONE', *, *, #221, .F. ) ;
#96 = DIRECTION ( 'NONE',  ( 1.083712268547260200E-016, -0.8849182223819821400, -0.4657464328326227400 ) ) ;
#97 = AXIS2_PLACEMENT_3D ( 'NONE', #89, #25, #98 ) ;
#98 = DIRECTION ( 'NONE',  ( -1.000000000000000000, 0.0000000000000000000, 4.333422509880754200E-012 ) ) ;
#99 = CARTESIAN_POINT ( 'NONE',  ( -0.7381889763779527800, 1.365923996832131400E-016, 0.4173228346456693300 ) ) ;
#100 = VERTEX_POINT ( 'NONE', #167 ) ;
#101 = DIRECTION ( 'NONE',  ( 0.0000000000000000000, 0.0000000000000000000, -1.000000000000000000 ) ) ;
#102 = CARTESIAN_POINT ( 'NONE',  ( 0.0000000000000000000, 0.0000000000000000000, 0.0000000000000000000 ) ) ;
#103 = AXIS2_PLACEMENT_3D ( 'NONE', #193, #170, #7 ) ;
#104 = DIRECTION ( 'NONE',  ( 0.0000000000000000000, 0.0000000000000000000, 1.000000000000000000 ) ) ;
#105 = FILL_AREA_STYLE_COLOUR ( '', #297 ) ;
#106 = EDGE_LOOP ( 'NONE', ( #204, #289, #229, #92 ) ) ;
#107 = PRESENTATION_STYLE_ASSIGNMENT (( #153 ) ) ;
#108 = SURFACE_STYLE_FILL_AREA ( #273 ) ;
#109 = AXIS2_PLACEMENT_3D ( 'NONE', #124, #296, #159 ) ;
#110 = CARTESIAN_POINT ( 'NONE',  ( 1.124851792275567000E-016, -1.365923996832131900E-016, 2.086614173228346300 ) ) ;
#111 = CIRCLE ( 'NONE', #115, 0.7500000000000002200 ) ;
#112 = AXIS2_PLACEMENT_3D ( 'NONE', #74, #216, #217 ) ;
#113 = DIMENSIONAL_EXPONENTS ( 1.000000000000000000, 0.0000000000000000000, 0.0000000000000000000, 0.0000000000000000000, 0.0000000000000000000, 0.0000000000000000000, 0.0000000000000000000 ) ;
#114 = ADVANCED_FACE ( 'NONE', ( #212 ), #214, .T. ) ;
#115 = AXIS2_PLACEMENT_3D ( 'NONE', #266, #265, #120 ) ;
#116 = LENGTH_MEASURE_WITH_UNIT ( LENGTH_MEASURE( 0.02539999999999999900 ), #32 );
#117 = ORIENTED_EDGE ( 'NONE', *, *, #62, .T. ) ;
#118 = DIRECTION ( 'NONE',  ( 0.0000000000000000000, -3.642463991552351500E-016, 1.000000000000000000 ) ) ;
#119 =( GEOMETRIC_REPRESENTATION_CONTEXT ( 3 ) GLOBAL_UNCERTAINTY_ASSIGNED_CONTEXT ( ( #238 ) ) GLOBAL_UNIT_ASSIGNED_CONTEXT ( ( #12, #81, #201 ) ) REPRESENTATION_CONTEXT ( 'NONE', 'WORKASPACE' ) );
#120 = DIRECTION ( 'NONE',  ( 0.0000000000000000000, 1.000000000000000000, 0.0000000000000000000 ) ) ;
#121 = FACE_OUTER_BOUND ( 'NONE', #181, .T. ) ;
#122 = ORIENTED_EDGE ( 'NONE', *, *, #20, .F. ) ;
#123 = DIRECTION ( 'NONE',  ( 0.0000000000000000000, -1.734723475976807100E-016, -1.000000000000000000 ) ) ;
#124 = CARTESIAN_POINT ( 'NONE',  ( -1.591929188603911000E-016, 1.365923996832131400E-016, -2.132890321053373600E-013 ) ) ;
#125 = AXIS2_PLACEMENT_3D ( 'NONE', #110, #35, #225 ) ;
#126 = DIRECTION ( 'NONE',  ( -0.0000000000000000000, -0.0000000000000000000, 1.000000000000000000 ) ) ;
#127 = STYLED_ITEM ( 'NONE', ( #228 ), #192 ) ;
#128 = FILL_AREA_STYLE_COLOUR ( '', #46 ) ;
#129 = CIRCLE ( 'NONE', #136, 0.7381889763779526700 ) ;
#130 = FACE_OUTER_BOUND ( 'NONE', #236, .T. ) ;
#131 = PRODUCT_CONTEXT ( 'NONE', #132, 'mechanical' ) ;
#132 = APPLICATION_CONTEXT ( 'automotive_design' ) ;
#133 = AXIS2_PLACEMENT_3D ( 'NONE', #11, #196, #245 ) ;
#134 = FACE_OUTER_BOUND ( 'NONE', #269, .T. ) ;
#135 = EDGE_LOOP ( 'NONE', ( #95, #205 ) ) ;
#136 = AXIS2_PLACEMENT_3D ( 'NONE', #271, #126, #267 ) ;
#137 = CARTESIAN_POINT ( 'NONE',  ( -0.7874015748031496500, -4.016351786058693700E-017, -5.088463413835078900E-028 ) ) ;
#138 = CYLINDRICAL_SURFACE ( 'NONE', #133, 0.7381889763779526700 ) ;
#139 = EDGE_CURVE ( 'NONE', #249, #66, #235, .T. ) ;
#140 = DIRECTION ( 'NONE',  ( 0.0000000000000000000, 0.0000000000000000000, -1.000000000000000000 ) ) ;
#141 = CIRCLE ( 'NONE', #278, 0.7874015748031497600 ) ;
#142 = VERTEX_POINT ( 'NONE', #151 ) ;
#143 = AXIS2_PLACEMENT_3D ( 'NONE', #17, #140, #276 ) ;
#144 = ADVANCED_FACE ( 'NONE', ( #199 ), #138, .F. ) ;
#145 = UNCERTAINTY_MEASURE_WITH_UNIT (LENGTH_MEASURE( 1.000000000000000100E-005 ), #175, 'distance_accuracy_value', 'NONE');
#146 = CARTESIAN_POINT ( 'NONE',  ( -0.7500000000000001100, 0.0000000000000000000, 2.106299212598425000 ) ) ;
#147 = CARTESIAN_POINT ( 'NONE',  ( 0.7874015748031498700, -1.365923996832131900E-016, 2.086614173228346300 ) ) ;
#148 = CIRCLE ( 'NONE', #112, 0.7500000000000002200 ) ;
#149 = ORIENTED_EDGE ( 'NONE', *, *, #50, .T. ) ;
#150 = AXIS2_PLACEMENT_3D ( 'NONE', #277, #182, #39 ) ;
#151 = CARTESIAN_POINT ( 'NONE',  ( -0.7874015748031496500, -4.016351786058693700E-017, 2.086614173228346300 ) ) ;
#152 = ORIENTED_EDGE ( 'NONE', *, *, #50, .F. ) ;
#153 = SURFACE_STYLE_USAGE ( .BOTH. , #290 ) ;
#154 = DIRECTION ( 'NONE',  ( 1.000000000000000000, 0.0000000000000000000, 0.0000000000000000000 ) ) ;
#155 = VECTOR ( 'NONE', #28, 39.37007874015748900 ) ;
#156 = ORIENTED_EDGE ( 'NONE', *, *, #248, .T. ) ;
#157 =( GEOMETRIC_REPRESENTATION_CONTEXT ( 3 ) GLOBAL_UNCERTAINTY_ASSIGNED_CONTEXT ( ( #145 ) ) GLOBAL_UNIT_ASSIGNED_CONTEXT ( ( #175, #33, #200 ) ) REPRESENTATION_CONTEXT ( 'NONE', 'WORKASPACE' ) );
#158 = ORIENTED_EDGE ( 'NONE', *, *, #292, .T. ) ;
#159 = DIRECTION ( 'NONE',  ( -1.000000000000000000, 0.0000000000000000000, 0.0000000000000000000 ) ) ;
#160 = DIRECTION ( 'NONE',  ( 0.0000000000000000000, -1.734723475976807100E-016, -1.000000000000000000 ) ) ;
#161 = VECTOR ( 'NONE', #96, 39.37007874015748900 ) ;
#162 = PLANE ( 'NONE',  #97 ) ;
#163 = AXIS2_PLACEMENT_3D ( 'NONE', #51, #123, #244 ) ;
#164 = ORIENTED_EDGE ( 'NONE', *, *, #31, .F. ) ;
#165 = EDGE_CURVE ( 'NONE', #294, #280, #94, .T. ) ;
#166 = ORIENTED_EDGE ( 'NONE', *, *, #31, .T. ) ;
#167 = CARTESIAN_POINT ( 'NONE',  ( 0.7381889763779524400, 2.269944763919252000E-016, -2.132890321053373600E-013 ) ) ;
#168 = DIRECTION ( 'NONE',  ( 0.0000000000000000000, 0.0000000000000000000, 1.000000000000000000 ) ) ;
#169 = DIRECTION ( 'NONE',  ( 1.000000000000000000, 0.0000000000000000000, 0.0000000000000000000 ) ) ;
#170 = DIRECTION ( 'NONE',  ( 0.0000000000000000000, 0.0000000000000000000, -1.000000000000000000 ) ) ;
#171 = ORIENTED_EDGE ( 'NONE', *, *, #62, .F. ) ;
#172 = DIRECTION ( 'NONE',  ( 0.0000000000000000000, 0.0000000000000000000, -1.000000000000000000 ) ) ;
#173 = EDGE_CURVE ( 'NONE', #23, #293, #206, .T. ) ;
#174 =( NAMED_UNIT ( * ) SI_UNIT ( $, .STERADIAN. ) SOLID_ANGLE_UNIT ( ) );
#175 =( CONVERSION_BASED_UNIT ( 'INCH', #232 ) LENGTH_UNIT ( ) NAMED_UNIT ( #257 ) );
#176 = CARTESIAN_POINT ( 'NONE',  ( 1.365923996832131600E-016, 0.7500000000000001100, 2.106299212598425000 ) ) ;
#177 = VERTEX_POINT ( 'NONE', #147 ) ;
#178 = DIRECTION ( 'NONE',  ( 0.0000000000000000000, 1.000000000000000000, -3.469446951953613700E-016 ) ) ;
#179 = AXIS2_PLACEMENT_3D ( 'NONE', #231, #160, #178 ) ;
#180 = LINE ( 'NONE', #288, #40 ) ;
#181 = EDGE_LOOP ( 'NONE', ( #83, #4 ) ) ;
#182 = DIRECTION ( 'NONE',  ( 0.0000000000000000000, 0.0000000000000000000, 1.000000000000000000 ) ) ;
#183 = CARTESIAN_POINT ( 'NONE',  ( 0.7381889763779524400, 2.269944763919252000E-016, 0.4173228346456693300 ) ) ;
#184 = CIRCLE ( 'NONE', #268, 0.7874015748031497600 ) ;
#185 = UNCERTAINTY_MEASURE_WITH_UNIT (LENGTH_MEASURE( 1.000000000000000100E-005 ), #223, 'distance_accuracy_value', 'NONE');
#186 = EDGE_LOOP ( 'NONE', ( #291, #164 ) ) ;
#187 = ORIENTED_EDGE ( 'NONE', *, *, #56, .T. ) ;
#188 = DIRECTION ( 'NONE',  ( -0.0000000000000000000, -0.0000000000000000000, -1.000000000000000000 ) ) ;
#189 = DIMENSIONAL_EXPONENTS ( 1.000000000000000000, 0.0000000000000000000, 0.0000000000000000000, 0.0000000000000000000, 0.0000000000000000000, 0.0000000000000000000, 0.0000000000000000000 ) ;
#190 = CONICAL_SURFACE ( 'NONE', #163, 0.7874015748031497600, 1.086318397757872800 ) ;
#191 = CARTESIAN_POINT ( 'NONE',  ( 1.365923996832131600E-016, 0.7874015748031496500, 2.086614173228346300 ) ) ;
#192 = ADVANCED_BREP_SHAPE_REPRESENTATION ( 'LR4-BW', ( #1, #197 ), #119 ) ;
#193 = CARTESIAN_POINT ( 'NONE',  ( -1.591929188603911000E-016, 1.365923996832131400E-016, 0.4173228346456693300 ) ) ;
#194 = ORIENTED_EDGE ( 'NONE', *, *, #221, .T. ) ;
#195 = AXIS2_PLACEMENT_3D ( 'NONE', #29, #30, #73 ) ;
#196 = DIRECTION ( 'NONE',  ( 0.0000000000000000000, 0.0000000000000000000, -1.000000000000000000 ) ) ;
#197 = AXIS2_PLACEMENT_3D ( 'NONE', #102, #104, #154 ) ;
#198 = FILL_AREA_STYLE ('',( #105 ) ) ;
#199 = FACE_OUTER_BOUND ( 'NONE', #106, .T. ) ;
#200 =( NAMED_UNIT ( * ) SI_UNIT ( $, .STERADIAN. ) SOLID_ANGLE_UNIT ( ) );
#201 =( NAMED_UNIT ( * ) SI_UNIT ( $, .STERADIAN. ) SOLID_ANGLE_UNIT ( ) );
#202 = CARTESIAN_POINT ( 'NONE',  ( 1.124851792275567000E-016, -1.365923996832131900E-016, 2.086614173228346300 ) ) ;
#203 = CARTESIAN_POINT ( 'NONE',  ( -1.591929188603911000E-016, 1.365923996832131400E-016, 0.4173228346456693300 ) ) ;
#204 = ORIENTED_EDGE ( 'NONE', *, *, #173, .F. ) ;
#205 = ORIENTED_EDGE ( 'NONE', *, *, #248, .F. ) ;
#206 = CIRCLE ( 'NONE', #88, 0.7381889763779526700 ) ;
#207 = EDGE_LOOP ( 'NONE', ( #91, #220 ) ) ;
#208 = AXIS2_PLACEMENT_3D ( 'NONE', #285, #211, #169 ) ;
#209 = PRODUCT_DEFINITION_FORMATION_WITH_SPECIFIED_SOURCE ( 'ANY', '', #226, .NOT_KNOWN. ) ;
#210 = ORIENTED_EDGE ( 'NONE', *, *, #292, .F. ) ;
#211 = DIRECTION ( 'NONE',  ( 0.0000000000000000000, 0.0000000000000000000, 1.000000000000000000 ) ) ;
#212 = FACE_OUTER_BOUND ( 'NONE', #135, .T. ) ;
#213 = ORIENTED_EDGE ( 'NONE', *, *, #47, .F. ) ;
#214 = PLANE ( 'NONE',  #13 ) ;
#215 = MECHANICAL_DESIGN_GEOMETRIC_PRESENTATION_REPRESENTATION (  '', ( #127 ), #93 ) ;
#216 = DIRECTION ( 'NONE',  ( 0.0000000000000000000, -1.734723475976807100E-016, -1.000000000000000000 ) ) ;
#217 = DIRECTION ( 'NONE',  ( 0.0000000000000000000, 1.000000000000000000, 0.0000000000000000000 ) ) ;
#218 = DIRECTION ( 'NONE',  ( 0.0000000000000000000, 0.0000000000000000000, 1.000000000000000000 ) ) ;
#219 = CIRCLE ( 'NONE', #227, 0.7874015748031497600 ) ;
#220 = ORIENTED_EDGE ( 'NONE', *, *, #295, .T. ) ;
#221 = EDGE_CURVE ( 'NONE', #294, #249, #148, .T. ) ;
#222 = APPLICATION_PROTOCOL_DEFINITION ( 'draft international standard', 'automotive_design', 1998, #132 ) ;
#223 =( CONVERSION_BASED_UNIT ( 'INCH', #77 ) LENGTH_UNIT ( ) NAMED_UNIT ( #189 ) );
#224 = ORIENTED_EDGE ( 'NONE', *, *, #230, .F. ) ;
#225 = DIRECTION ( 'NONE',  ( 1.000000000000000000, 0.0000000000000000000, 0.0000000000000000000 ) ) ;
#226 = PRODUCT ( 'LR4-BW', 'LR4-BW', '', ( #131 ) ) ;
#227 = AXIS2_PLACEMENT_3D ( 'NONE', #202, #59, #57 ) ;
#228 = PRESENTATION_STYLE_ASSIGNMENT (( #55 ) ) ;
#229 = ORIENTED_EDGE ( 'NONE', *, *, #16, .F. ) ;
#230 = EDGE_CURVE ( 'NONE', #293, #23, #82, .T. ) ;
#231 = CARTESIAN_POINT ( 'NONE',  ( 1.365923996832131600E-016, -1.365923996832131900E-016, 2.086614173228346300 ) ) ;
#232 = LENGTH_MEASURE_WITH_UNIT ( LENGTH_MEASURE( 0.02539999999999999900 ), #14 );
#233 = ORIENTED_EDGE ( 'NONE', *, *, #56, .F. ) ;
#234 = PRODUCT_RELATED_PRODUCT_CATEGORY ( 'part', '', ( #226 ) ) ;
#235 = LINE ( 'NONE', #48, #161 ) ;
#236 = EDGE_LOOP ( 'NONE', ( #122, #224, #36, #53 ) ) ;
#237 = EDGE_CURVE ( 'NONE', #293, #243, #21, .T. ) ;
#238 = UNCERTAINTY_MEASURE_WITH_UNIT (LENGTH_MEASURE( 1.000000000000000100E-005 ), #12, 'distance_accuracy_value', 'NONE');
#239 = FACE_OUTER_BOUND ( 'NONE', #72, .T. ) ;
#240 = CARTESIAN_POINT ( 'NONE',  ( -0.7874015748031496500, -4.016351786058693700E-017, -5.088463413835078900E-028 ) ) ;
#241 = CARTESIAN_POINT ( 'NONE',  ( 1.365923996832131600E-016, 0.7874015748031491000, 2.086614173228346300 ) ) ;
#242 = CONICAL_SURFACE ( 'NONE', #179, 0.7874015748031497600, 1.086318397757872800 ) ;
#243 = VERTEX_POINT ( 'NONE', #54 ) ;
#244 = DIRECTION ( 'NONE',  ( 0.0000000000000000000, 1.000000000000000000, -3.469446951953613700E-016 ) ) ;
#245 = DIRECTION ( 'NONE',  ( -1.000000000000000000, 0.0000000000000000000, 0.0000000000000000000 ) ) ;
#246 = APPLICATION_PROTOCOL_DEFINITION ( 'draft international standard', 'automotive_design', 1998, #78 ) ;
#247 =( NAMED_UNIT ( * ) PLANE_ANGLE_UNIT ( ) SI_UNIT ( $, .RADIAN. ) );
#248 = EDGE_CURVE ( 'NONE', #249, #294, #111, .T. ) ;
#249 = VERTEX_POINT ( 'NONE', #286 ) ;
#250 = STYLED_ITEM ( 'NONE', ( #107 ), #1 ) ;
#251 = DIRECTION ( 'NONE',  ( -1.000000000000000000, 0.0000000000000000000, 0.0000000000000000000 ) ) ;
#252 = PLANE ( 'NONE',  #143 ) ;
#253 = DIRECTION ( 'NONE',  ( -0.0000000000000000000, -0.0000000000000000000, -1.000000000000000000 ) ) ;
#254 = CIRCLE ( 'NONE', #65, 0.7874015748031497600 ) ;
#255 = ORIENTED_EDGE ( 'NONE', *, *, #165, .T. ) ;
#256 = ADVANCED_FACE ( 'NONE', ( #239 ), #8, .T. ) ;
#257 = DIMENSIONAL_EXPONENTS ( 1.000000000000000000, 0.0000000000000000000, 0.0000000000000000000, 0.0000000000000000000, 0.0000000000000000000, 0.0000000000000000000, 0.0000000000000000000 ) ;
#258 = VECTOR ( 'NONE', #168, 39.37007874015748100 ) ;
#259 = ADVANCED_FACE ( 'NONE', ( #71 ), #37, .T. ) ;
#260 = PRESENTATION_LAYER_ASSIGNMENT (  '', '', ( #250 ) ) ;
#261 = PRODUCT_DEFINITION_SHAPE ( 'NONE', 'NONE',  #85 ) ;
#262 = CARTESIAN_POINT ( 'NONE',  ( -1.591929188603911000E-016, 1.365923996832131400E-016, 0.4173228346456693300 ) ) ;
#263 = VECTOR ( 'NONE', #172, 39.37007874015748100 ) ;
#264 = ORIENTED_EDGE ( 'NONE', *, *, #139, .F. ) ;
#265 = DIRECTION ( 'NONE',  ( 0.0000000000000000000, -1.734723475976807100E-016, -1.000000000000000000 ) ) ;
#266 = CARTESIAN_POINT ( 'NONE',  ( 1.365923996832131600E-016, -1.331775896911328700E-016, 2.106299212598425000 ) ) ;
#267 = DIRECTION ( 'NONE',  ( -1.000000000000000000, 0.0000000000000000000, 0.0000000000000000000 ) ) ;
#268 = AXIS2_PLACEMENT_3D ( 'NONE', #76, #188, #3 ) ;
#269 = EDGE_LOOP ( 'NONE', ( #264, #156, #255, #210, #61 ) ) ;
#270 = DIRECTION ( 'NONE',  ( 0.0000000000000000000, 0.0000000000000000000, -1.000000000000000000 ) ) ;
#271 = CARTESIAN_POINT ( 'NONE',  ( -1.591929188603911000E-016, 1.365923996832131400E-016, -2.132890321053373600E-013 ) ) ;
#272 = SHAPE_DEFINITION_REPRESENTATION ( #261, #192 ) ;
#273 = FILL_AREA_STYLE ('',( #128 ) ) ;
#274 =( LENGTH_UNIT ( ) NAMED_UNIT ( * ) SI_UNIT ( $, .METRE. ) );
#275 = CYLINDRICAL_SURFACE ( 'NONE', #84, 0.7381889763779526700 ) ;
#276 = DIRECTION ( 'NONE',  ( -1.000000000000000000, 0.0000000000000000000, -0.0000000000000000000 ) ) ;
#277 = CARTESIAN_POINT ( 'NONE',  ( 1.124851792275567000E-016, -1.365923996832131900E-016, -5.088463413835078900E-028 ) ) ;
#278 = AXIS2_PLACEMENT_3D ( 'NONE', #299, #86, #63 ) ;
#279 = LINE ( 'NONE', #6, #258 ) ;
#280 = VERTEX_POINT ( 'NONE', #241 ) ;
#281 = ADVANCED_FACE ( 'NONE', ( #134 ), #190, .T. ) ;
#282 = EDGE_LOOP ( 'NONE', ( #194, #67, #152, #213, #15 ) ) ;
#283 = FACE_BOUND ( 'NONE', #207, .T. ) ;
#284 = PRODUCT_DEFINITION_CONTEXT ( 'detailed design', #78, 'design' ) ;
#285 = CARTESIAN_POINT ( 'NONE',  ( 1.124851792275567000E-016, -1.365923996832131900E-016, -5.088463413835078900E-028 ) ) ;
#286 = CARTESIAN_POINT ( 'NONE',  ( 2.307310955625520500E-016, -0.7500000000000003300, 2.106299212598425000 ) ) ;
#287 = SURFACE_STYLE_FILL_AREA ( #198 ) ;
#288 = CARTESIAN_POINT ( 'NONE',  ( 0.7381889763779524400, 2.269944763919252000E-016, 0.4173228346456693300 ) ) ;
#289 = ORIENTED_EDGE ( 'NONE', *, *, #20, .T. ) ;
#290 = SURFACE_SIDE_STYLE ('',( #108 ) ) ;
#291 = ORIENTED_EDGE ( 'NONE', *, *, #34, .F. ) ;
#292 = EDGE_CURVE ( 'NONE', #142, #280, #219, .T. ) ;
#293 = VERTEX_POINT ( 'NONE', #99 ) ;
#294 = VERTEX_POINT ( 'NONE', #176 ) ;
#295 = EDGE_CURVE ( 'NONE', #100, #243, #129, .T. ) ;
#296 = DIRECTION ( 'NONE',  ( -0.0000000000000000000, -0.0000000000000000000, 1.000000000000000000 ) ) ;
#297 = COLOUR_RGB ( '',0.7921568627450980000, 0.8196078431372548800, 0.9333333333333333500 ) ;
#298 = LINE ( 'NONE', #137, #18 ) ;
#299 = CARTESIAN_POINT ( 'NONE',  ( 1.124851792275567000E-016, -1.365923996832131900E-016, -5.088463413835078900E-028 ) ) ;
ENDSEC;
END-ISO-10303-21;
