ISO-10303-21;
HEADER;
FILE_DESCRIPTION (( 'STEP AP214' ),
    '1' );
FILE_NAME ('MAG-4.step',
    '2018-04-17T19:31:29',
    ( '' ),
    ( '' ),
    'SwSTEP 2.0',
    'SolidWorks 2017',
    '' );
FILE_SCHEMA (( 'AUTOMOTIVE_DESIGN' ));
ENDSEC;

DATA;
#1 = PRODUCT_DEFINITION ( 'UNKNOWN', '', #107, #111 ) ;
#2 = EDGE_LOOP ( 'NONE', ( #129, #110 ) ) ;
#3 = ORIENTED_EDGE ( 'NONE', *, *, #42, .F. ) ;
#4 =( LENGTH_UNIT ( ) NAMED_UNIT ( * ) SI_UNIT ( $, .METRE. ) );
#5 = UNCERTAINTY_MEASURE_WITH_UNIT (LENGTH_MEASURE( 1.000000000000000100E-005 ), #52, 'distance_accuracy_value', 'NONE');
#6 =( NAMED_UNIT ( * ) PLANE_ANGLE_UNIT ( ) SI_UNIT ( $, .RADIAN. ) );
#7 = FACE_OUTER_BOUND ( 'NONE', #11, .T. ) ;
#8 = SURFACE_STYLE_USAGE ( .BOTH. , #92 ) ;
#9 = ORIENTED_EDGE ( 'NONE', *, *, #139, .F. ) ;
#10 = PRODUCT_RELATED_PRODUCT_CATEGORY ( 'part', '', ( #109 ) ) ;
#11 = EDGE_LOOP ( 'NONE', ( #14, #3 ) ) ;
#12 = DIRECTION ( 'NONE',  ( 0.0000000000000000000, 0.0000000000000000000, -1.000000000000000000 ) ) ;
#13 = DIRECTION ( 'NONE',  ( 0.0000000000000000000, 1.000000000000000000, 0.0000000000000000000 ) ) ;
#14 = ORIENTED_EDGE ( 'NONE', *, *, #59, .F. ) ;
#15 = CARTESIAN_POINT ( 'NONE',  ( 0.2952755905511810800, 0.0000000000000000000, -7.231927286352637600E-017 ) ) ;
#16 = CARTESIAN_POINT ( 'NONE',  ( 7.232166136696967600E-017, 0.0000000000000000000, 0.5905511811023621500 ) ) ;
#17 = MANIFOLD_SOLID_BREP ( '1', #61 ) ;
#18 = ORIENTED_EDGE ( 'NONE', *, *, #50, .F. ) ;
#19 = DIRECTION ( 'NONE',  ( 0.0000000000000000000, 0.0000000000000000000, -1.000000000000000000 ) ) ;
#20 = DIMENSIONAL_EXPONENTS ( 1.000000000000000000, 0.0000000000000000000, 0.0000000000000000000, 0.0000000000000000000, 0.0000000000000000000, 0.0000000000000000000, 0.0000000000000000000 ) ;
#21 = CIRCLE ( 'NONE', #103, 0.5905511811023621500 ) ;
#22 = CARTESIAN_POINT ( 'NONE',  ( 0.0000000000000000000, 0.3937007874015748300, -0.5905511811023621500 ) ) ;
#23 = DIRECTION ( 'NONE',  ( 0.0000000000000000000, -1.000000000000000000, 0.0000000000000000000 ) ) ;
#24 = DIRECTION ( 'NONE',  ( 0.0000000000000000000, -1.000000000000000000, 0.0000000000000000000 ) ) ;
#25 = LINE ( 'NONE', #81, #30 ) ;
#26 = FILL_AREA_STYLE_COLOUR ( '', #146 ) ;
#27 =( LENGTH_UNIT ( ) NAMED_UNIT ( * ) SI_UNIT ( $, .METRE. ) );
#28 = DIRECTION ( 'NONE',  ( 0.0000000000000000000, -1.000000000000000000, 0.0000000000000000000 ) ) ;
#29 = DIMENSIONAL_EXPONENTS ( 1.000000000000000000, 0.0000000000000000000, 0.0000000000000000000, 0.0000000000000000000, 0.0000000000000000000, 0.0000000000000000000, 0.0000000000000000000 ) ;
#30 = VECTOR ( 'NONE', #126, 39.37007874015748100 ) ;
#31 =( LENGTH_UNIT ( ) NAMED_UNIT ( * ) SI_UNIT ( $, .METRE. ) );
#32 = AXIS2_PLACEMENT_3D ( 'NONE', #113, #99, #19 ) ;
#33 = EDGE_LOOP ( 'NONE', ( #18, #100, #38, #9 ) ) ;
#34 =( CONVERSION_BASED_UNIT ( 'INCH', #62 ) LENGTH_UNIT ( ) NAMED_UNIT ( #70 ) );
#35 = AXIS2_PLACEMENT_3D ( 'NONE', #104, #28, #64 ) ;
#36 = CYLINDRICAL_SURFACE ( 'NONE', #35, 0.5905511811023621500 ) ;
#37 = DIRECTION ( 'NONE',  ( 0.0000000000000000000, -1.000000000000000000, 0.0000000000000000000 ) ) ;
#38 = ORIENTED_EDGE ( 'NONE', *, *, #49, .T. ) ;
#39 = CARTESIAN_POINT ( 'NONE',  ( 7.232166136696967600E-017, 0.3937007874015748300, 0.5905511811023621500 ) ) ;
#40 = FILL_AREA_STYLE ('',( #26 ) ) ;
#41 =( NAMED_UNIT ( * ) SI_UNIT ( $, .STERADIAN. ) SOLID_ANGLE_UNIT ( ) );
#42 = EDGE_CURVE ( 'NONE', #137, #147, #21, .T. ) ;
#43 = SURFACE_SIDE_STYLE ('',( #69 ) ) ;
#44 = AXIS2_PLACEMENT_3D ( 'NONE', #90, #78, #114 ) ;
#45 = FACE_OUTER_BOUND ( 'NONE', #33, .T. ) ;
#46 = CIRCLE ( 'NONE', #48, 0.5905511811023621500 ) ;
#47 = LENGTH_MEASURE_WITH_UNIT ( LENGTH_MEASURE( 0.02539999999999999900 ), #4 );
#48 = AXIS2_PLACEMENT_3D ( 'NONE', #71, #24, #106 ) ;
#49 = EDGE_CURVE ( 'NONE', #147, #86, #88, .T. ) ;
#50 = EDGE_CURVE ( 'NONE', #137, #124, #25, .T. ) ;
#51 = DIRECTION ( 'NONE',  ( 0.0000000000000000000, -1.000000000000000000, 0.0000000000000000000 ) ) ;
#52 =( CONVERSION_BASED_UNIT ( 'INCH', #47 ) LENGTH_UNIT ( ) NAMED_UNIT ( #20 ) );
#53 = DIRECTION ( 'NONE',  ( 0.0000000000000000000, -0.0000000000000000000, -1.000000000000000000 ) ) ;
#54 =( NAMED_UNIT ( * ) SI_UNIT ( $, .STERADIAN. ) SOLID_ANGLE_UNIT ( ) );
#55 = PRESENTATION_STYLE_ASSIGNMENT (( #8 ) ) ;
#56 = CIRCLE ( 'NONE', #108, 0.5905511811023621500 ) ;
#57 = COLOUR_RGB ( '',0.7921568627450980000, 0.8196078431372548800, 0.9333333333333333500 ) ;
#58 = UNCERTAINTY_MEASURE_WITH_UNIT (LENGTH_MEASURE( 1.000000000000000100E-005 ), #34, 'distance_accuracy_value', 'NONE');
#59 = EDGE_CURVE ( 'NONE', #147, #137, #65, .T. ) ;
#60 =( NAMED_UNIT ( * ) SI_UNIT ( $, .STERADIAN. ) SOLID_ANGLE_UNIT ( ) );
#61 = CLOSED_SHELL ( 'NONE', ( #89, #77, #121, #130 ) ) ;
#62 = LENGTH_MEASURE_WITH_UNIT ( LENGTH_MEASURE( 0.02539999999999999900 ), #31 );
#63 = EDGE_CURVE ( 'NONE', #86, #124, #56, .T. ) ;
#64 = DIRECTION ( 'NONE',  ( 0.0000000000000000000, 0.0000000000000000000, -1.000000000000000000 ) ) ;
#65 = CIRCLE ( 'NONE', #32, 0.5905511811023621500 ) ;
#66 = EDGE_LOOP ( 'NONE', ( #118, #79, #145, #73 ) ) ;
#67 =( GEOMETRIC_REPRESENTATION_CONTEXT ( 3 ) GLOBAL_UNCERTAINTY_ASSIGNED_CONTEXT ( ( #5 ) ) GLOBAL_UNIT_ASSIGNED_CONTEXT ( ( #52, #75, #54 ) ) REPRESENTATION_CONTEXT ( 'NONE', 'WORKASPACE' ) );
#68 = DIRECTION ( 'NONE',  ( 1.000000000000000000, 0.0000000000000000000, 0.0000000000000000000 ) ) ;
#69 = SURFACE_STYLE_FILL_AREA ( #40 ) ;
#70 = DIMENSIONAL_EXPONENTS ( 1.000000000000000000, 0.0000000000000000000, 0.0000000000000000000, 0.0000000000000000000, 0.0000000000000000000, 0.0000000000000000000, 0.0000000000000000000 ) ;
#71 = CARTESIAN_POINT ( 'NONE',  ( 0.0000000000000000000, 0.0000000000000000000, 0.0000000000000000000 ) ) ;
#72 = FILL_AREA_STYLE_COLOUR ( '', #57 ) ;
#73 = ORIENTED_EDGE ( 'NONE', *, *, #49, .F. ) ;
#74 = STYLED_ITEM ( 'NONE', ( #55 ), #17 ) ;
#75 =( NAMED_UNIT ( * ) PLANE_ANGLE_UNIT ( ) SI_UNIT ( $, .RADIAN. ) );
#76 = APPLICATION_CONTEXT ( 'automotive_design' ) ;
#77 = ADVANCED_FACE ( 'NONE', ( #98 ), #148, .T. ) ;
#78 = DIRECTION ( 'NONE',  ( 0.0000000000000000000, -1.000000000000000000, 0.0000000000000000000 ) ) ;
#79 = ORIENTED_EDGE ( 'NONE', *, *, #50, .T. ) ;
#80 = PLANE ( 'NONE',  #133 ) ;
#81 = CARTESIAN_POINT ( 'NONE',  ( 7.232166136696967600E-017, 0.1968503937007874100, 0.5905511811023621500 ) ) ;
#82 = CARTESIAN_POINT ( 'NONE',  ( 0.0000000000000000000, 0.0000000000000000000, -0.5905511811023621500 ) ) ;
#83 =( GEOMETRIC_REPRESENTATION_CONTEXT ( 3 ) GLOBAL_UNCERTAINTY_ASSIGNED_CONTEXT ( ( #58 ) ) GLOBAL_UNIT_ASSIGNED_CONTEXT ( ( #34, #122, #60 ) ) REPRESENTATION_CONTEXT ( 'NONE', 'WORKASPACE' ) );
#84 = CARTESIAN_POINT ( 'NONE',  ( 0.0000000000000000000, 0.0000000000000000000, 0.0000000000000000000 ) ) ;
#85 = SURFACE_STYLE_USAGE ( .BOTH. , #43 ) ;
#86 = VERTEX_POINT ( 'NONE', #82 ) ;
#87 = DIRECTION ( 'NONE',  ( 0.0000000000000000000, -0.0000000000000000000, 1.000000000000000000 ) ) ;
#88 = LINE ( 'NONE', #95, #132 ) ;
#89 = ADVANCED_FACE ( 'NONE', ( #115 ), #36, .T. ) ;
#90 = CARTESIAN_POINT ( 'NONE',  ( 0.0000000000000000000, 0.1968503937007874100, 0.0000000000000000000 ) ) ;
#91 = PRESENTATION_LAYER_ASSIGNMENT (  '', '', ( #74 ) ) ;
#92 = SURFACE_SIDE_STYLE ('',( #93 ) ) ;
#93 = SURFACE_STYLE_FILL_AREA ( #144 ) ;
#94 = AXIS2_PLACEMENT_3D ( 'NONE', #15, #102, #53 ) ;
#95 = CARTESIAN_POINT ( 'NONE',  ( 0.0000000000000000000, 0.1968503937007874100, -0.5905511811023621500 ) ) ;
#96 = SHAPE_DEFINITION_REPRESENTATION ( #138, #125 ) ;
#97 = MECHANICAL_DESIGN_GEOMETRIC_PRESENTATION_REPRESENTATION (  '', ( #142 ), #67 ) ;
#98 = FACE_OUTER_BOUND ( 'NONE', #2, .T. ) ;
#99 = DIRECTION ( 'NONE',  ( 0.0000000000000000000, -1.000000000000000000, 0.0000000000000000000 ) ) ;
#100 = ORIENTED_EDGE ( 'NONE', *, *, #42, .T. ) ;
#101 = PRODUCT_CONTEXT ( 'NONE', #127, 'mechanical' ) ;
#102 = DIRECTION ( 'NONE',  ( 0.0000000000000000000, -1.000000000000000000, 0.0000000000000000000 ) ) ;
#103 = AXIS2_PLACEMENT_3D ( 'NONE', #116, #51, #12 ) ;
#104 = CARTESIAN_POINT ( 'NONE',  ( 0.0000000000000000000, 0.1968503937007874100, 0.0000000000000000000 ) ) ;
#105 =( CONVERSION_BASED_UNIT ( 'INCH', #143 ) LENGTH_UNIT ( ) NAMED_UNIT ( #29 ) );
#106 = DIRECTION ( 'NONE',  ( 0.0000000000000000000, 0.0000000000000000000, -1.000000000000000000 ) ) ;
#107 = PRODUCT_DEFINITION_FORMATION_WITH_SPECIFIED_SOURCE ( 'ANY', '', #109, .NOT_KNOWN. ) ;
#108 = AXIS2_PLACEMENT_3D ( 'NONE', #84, #23, #149 ) ;
#109 = PRODUCT ( 'MAG-4', 'MAG-4', '', ( #101 ) ) ;
#110 = ORIENTED_EDGE ( 'NONE', *, *, #139, .T. ) ;
#111 = PRODUCT_DEFINITION_CONTEXT ( 'detailed design', #76, 'design' ) ;
#112 =( GEOMETRIC_REPRESENTATION_CONTEXT ( 3 ) GLOBAL_UNCERTAINTY_ASSIGNED_CONTEXT ( ( #134 ) ) GLOBAL_UNIT_ASSIGNED_CONTEXT ( ( #105, #6, #41 ) ) REPRESENTATION_CONTEXT ( 'NONE', 'WORKASPACE' ) );
#113 = CARTESIAN_POINT ( 'NONE',  ( 0.0000000000000000000, 0.3937007874015748300, 0.0000000000000000000 ) ) ;
#114 = DIRECTION ( 'NONE',  ( 0.0000000000000000000, 0.0000000000000000000, -1.000000000000000000 ) ) ;
#115 = FACE_OUTER_BOUND ( 'NONE', #66, .T. ) ;
#116 = CARTESIAN_POINT ( 'NONE',  ( 0.0000000000000000000, 0.3937007874015748300, 0.0000000000000000000 ) ) ;
#117 = DIRECTION ( 'NONE',  ( 0.0000000000000000000, 0.0000000000000000000, 1.000000000000000000 ) ) ;
#118 = ORIENTED_EDGE ( 'NONE', *, *, #59, .T. ) ;
#119 = APPLICATION_PROTOCOL_DEFINITION ( 'draft international standard', 'automotive_design', 1998, #127 ) ;
#120 = PRESENTATION_LAYER_ASSIGNMENT (  '', '', ( #142 ) ) ;
#121 = ADVANCED_FACE ( 'NONE', ( #45 ), #136, .T. ) ;
#122 =( NAMED_UNIT ( * ) PLANE_ANGLE_UNIT ( ) SI_UNIT ( $, .RADIAN. ) );
#123 = AXIS2_PLACEMENT_3D ( 'NONE', #141, #117, #68 ) ;
#124 = VERTEX_POINT ( 'NONE', #16 ) ;
#125 = ADVANCED_BREP_SHAPE_REPRESENTATION ( 'MAG-4', ( #17, #123 ), #112 ) ;
#126 = DIRECTION ( 'NONE',  ( 0.0000000000000000000, -1.000000000000000000, 0.0000000000000000000 ) ) ;
#127 = APPLICATION_CONTEXT ( 'automotive_design' ) ;
#128 = APPLICATION_PROTOCOL_DEFINITION ( 'draft international standard', 'automotive_design', 1998, #76 ) ;
#129 = ORIENTED_EDGE ( 'NONE', *, *, #63, .T. ) ;
#130 = ADVANCED_FACE ( 'NONE', ( #7 ), #80, .T. ) ;
#131 = MECHANICAL_DESIGN_GEOMETRIC_PRESENTATION_REPRESENTATION (  '', ( #74 ), #83 ) ;
#132 = VECTOR ( 'NONE', #37, 39.37007874015748100 ) ;
#133 = AXIS2_PLACEMENT_3D ( 'NONE', #135, #13, #87 ) ;
#134 = UNCERTAINTY_MEASURE_WITH_UNIT (LENGTH_MEASURE( 1.000000000000000100E-005 ), #105, 'distance_accuracy_value', 'NONE');
#135 = CARTESIAN_POINT ( 'NONE',  ( 0.2952755905511810800, 0.3937007874015748300, -7.231927286352637600E-017 ) ) ;
#136 = CYLINDRICAL_SURFACE ( 'NONE', #44, 0.5905511811023621500 ) ;
#137 = VERTEX_POINT ( 'NONE', #39 ) ;
#138 = PRODUCT_DEFINITION_SHAPE ( 'NONE', 'NONE',  #1 ) ;
#139 = EDGE_CURVE ( 'NONE', #124, #86, #46, .T. ) ;
#140 = PRESENTATION_STYLE_ASSIGNMENT (( #85 ) ) ;
#141 = CARTESIAN_POINT ( 'NONE',  ( 0.0000000000000000000, 0.0000000000000000000, 0.0000000000000000000 ) ) ;
#142 = STYLED_ITEM ( 'NONE', ( #140 ), #125 ) ;
#143 = LENGTH_MEASURE_WITH_UNIT ( LENGTH_MEASURE( 0.02539999999999999900 ), #27 );
#144 = FILL_AREA_STYLE ('',( #72 ) ) ;
#145 = ORIENTED_EDGE ( 'NONE', *, *, #63, .F. ) ;
#146 = COLOUR_RGB ( '',0.7921568627450980000, 0.8196078431372548800, 0.9333333333333333500 ) ;
#147 = VERTEX_POINT ( 'NONE', #22 ) ;
#148 = PLANE ( 'NONE',  #94 ) ;
#149 = DIRECTION ( 'NONE',  ( 0.0000000000000000000, 0.0000000000000000000, -1.000000000000000000 ) ) ;
ENDSEC;
END-ISO-10303-21;
