ISO-10303-21;
HEADER;
FILE_DESCRIPTION((''),'2;1');
FILE_NAME('KANAGU_MM4','2014-05-30T',('md30'),(
'Koyo Electronics Industries Co., LTD'),
'PRO/ENGINEER BY PARAMETRIC TECHNOLOGY CORPORATION, 2010020',
'PRO/ENGINEER BY PARAMETRIC TECHNOLOGY CORPORATION, 2010020','');
FILE_SCHEMA(('AUTOMOTIVE_DESIGN_CC2 { 1 2 10303 214 -1 1 5 2 }'));
ENDSEC;
DATA;
#2=DIRECTION('',(1.E0,0.E0,0.E0));
#3=VECTOR('',#2,8.E0);
#4=CARTESIAN_POINT('',(-4.E0,0.E0,-3.5E0));
#5=LINE('',#4,#3);
#6=DIRECTION('',(0.E0,0.E0,-1.E0));
#7=VECTOR('',#6,1.2E0);
#8=CARTESIAN_POINT('',(4.E0,0.E0,-3.5E0));
#9=LINE('',#8,#7);
#10=DIRECTION('',(-1.E0,0.E0,0.E0));
#11=VECTOR('',#10,8.E0);
#12=CARTESIAN_POINT('',(4.E0,0.E0,-4.7E0));
#13=LINE('',#12,#11);
#14=DIRECTION('',(0.E0,0.E0,1.E0));
#15=VECTOR('',#14,1.2E0);
#16=CARTESIAN_POINT('',(-4.E0,0.E0,-4.7E0));
#17=LINE('',#16,#15);
#18=DIRECTION('',(1.E0,0.E0,0.E0));
#19=VECTOR('',#18,8.E0);
#20=CARTESIAN_POINT('',(-4.E0,1.6E0,-3.5E0));
#21=LINE('',#20,#19);
#22=DIRECTION('',(0.E0,-1.E0,0.E0));
#23=VECTOR('',#22,1.2E0);
#24=CARTESIAN_POINT('',(-4.E0,2.8E0,4.5E0));
#25=LINE('',#24,#23);
#26=DIRECTION('',(0.E0,0.E0,-1.E0));
#27=VECTOR('',#26,8.E0);
#28=CARTESIAN_POINT('',(-4.E0,1.6E0,4.5E0));
#29=LINE('',#28,#27);
#30=DIRECTION('',(0.E0,1.E0,0.E0));
#31=VECTOR('',#30,1.6E0);
#32=CARTESIAN_POINT('',(-4.E0,0.E0,-3.5E0));
#33=LINE('',#32,#31);
#34=DIRECTION('',(0.E0,1.E0,0.E0));
#35=VECTOR('',#34,1.6E0);
#36=CARTESIAN_POINT('',(-4.E0,0.E0,-4.7E0));
#37=LINE('',#36,#35);
#38=CARTESIAN_POINT('',(-4.E0,1.6E0,-3.5E0));
#39=DIRECTION('',(-1.E0,0.E0,0.E0));
#40=DIRECTION('',(0.E0,1.E0,0.E0));
#41=AXIS2_PLACEMENT_3D('',#38,#39,#40);
#43=DIRECTION('',(-7.071067811865E-1,0.E0,-7.071067811865E-1));
#44=VECTOR('',#43,7.071067811865E-1);
#45=CARTESIAN_POINT('',(-3.5E0,1.6E0,5.E0));
#46=LINE('',#45,#44);
#47=DIRECTION('',(-7.071067811865E-1,0.E0,7.071067811865E-1));
#48=VECTOR('',#47,7.071067811865E-1);
#49=CARTESIAN_POINT('',(4.E0,1.6E0,4.5E0));
#50=LINE('',#49,#48);
#51=CARTESIAN_POINT('',(0.E0,1.6E0,5.E-1));
#52=DIRECTION('',(0.E0,1.E0,0.E0));
#53=DIRECTION('',(0.E0,0.E0,1.E0));
#54=AXIS2_PLACEMENT_3D('',#51,#52,#53);
#56=CARTESIAN_POINT('',(0.E0,1.6E0,5.E-1));
#57=DIRECTION('',(0.E0,1.E0,0.E0));
#58=DIRECTION('',(0.E0,0.E0,-1.E0));
#59=AXIS2_PLACEMENT_3D('',#56,#57,#58);
#61=DIRECTION('',(0.E0,-1.E0,0.E0));
#62=VECTOR('',#61,1.2E0);
#63=CARTESIAN_POINT('',(-3.5E0,2.8E0,5.E0));
#64=LINE('',#63,#62);
#65=DIRECTION('',(0.E0,-1.E0,0.E0));
#66=VECTOR('',#65,1.2E0);
#67=CARTESIAN_POINT('',(3.5E0,2.8E0,5.E0));
#68=LINE('',#67,#66);
#69=DIRECTION('',(1.E0,0.E0,0.E0));
#70=VECTOR('',#69,7.E0);
#71=CARTESIAN_POINT('',(-3.5E0,1.6E0,5.E0));
#72=LINE('',#71,#70);
#73=DIRECTION('',(7.071067811865E-1,0.E0,7.071067811865E-1));
#74=VECTOR('',#73,7.071067811865E-1);
#75=CARTESIAN_POINT('',(-4.E0,2.8E0,4.5E0));
#76=LINE('',#75,#74);
#77=DIRECTION('',(0.E0,0.E0,1.E0));
#78=VECTOR('',#77,8.E0);
#79=CARTESIAN_POINT('',(-4.E0,2.8E0,-3.5E0));
#80=LINE('',#79,#78);
#81=DIRECTION('',(-1.E0,0.E0,0.E0));
#82=VECTOR('',#81,8.E0);
#83=CARTESIAN_POINT('',(4.E0,2.8E0,-3.5E0));
#84=LINE('',#83,#82);
#85=DIRECTION('',(0.E0,0.E0,-1.E0));
#86=VECTOR('',#85,8.E0);
#87=CARTESIAN_POINT('',(4.E0,2.8E0,4.5E0));
#88=LINE('',#87,#86);
#89=DIRECTION('',(7.071067811865E-1,0.E0,-7.071067811865E-1));
#90=VECTOR('',#89,7.071067811865E-1);
#91=CARTESIAN_POINT('',(3.5E0,2.8E0,5.E0));
#92=LINE('',#91,#90);
#93=DIRECTION('',(1.E0,0.E0,0.E0));
#94=VECTOR('',#93,7.E0);
#95=CARTESIAN_POINT('',(-3.5E0,2.8E0,5.E0));
#96=LINE('',#95,#94);
#97=CARTESIAN_POINT('',(0.E0,2.8E0,5.E-1));
#98=DIRECTION('',(0.E0,1.E0,0.E0));
#99=DIRECTION('',(0.E0,0.E0,1.E0));
#100=AXIS2_PLACEMENT_3D('',#97,#98,#99);
#102=CARTESIAN_POINT('',(0.E0,2.8E0,5.E-1));
#103=DIRECTION('',(0.E0,1.E0,0.E0));
#104=DIRECTION('',(0.E0,0.E0,-1.E0));
#105=AXIS2_PLACEMENT_3D('',#102,#103,#104);
#107=DIRECTION('',(-1.E0,0.E0,0.E0));
#108=VECTOR('',#107,8.E0);
#109=CARTESIAN_POINT('',(4.E0,1.6E0,-4.7E0));
#110=LINE('',#109,#108);
#111=DIRECTION('',(0.E0,1.E0,0.E0));
#112=VECTOR('',#111,1.6E0);
#113=CARTESIAN_POINT('',(4.E0,0.E0,-4.7E0));
#114=LINE('',#113,#112);
#115=DIRECTION('',(0.E0,-1.E0,0.E0));
#116=VECTOR('',#115,1.2E0);
#117=CARTESIAN_POINT('',(4.E0,2.8E0,4.5E0));
#118=LINE('',#117,#116);
#119=CARTESIAN_POINT('',(4.E0,1.6E0,-3.5E0));
#120=DIRECTION('',(1.E0,0.E0,0.E0));
#121=DIRECTION('',(0.E0,0.E0,-1.E0));
#122=AXIS2_PLACEMENT_3D('',#119,#120,#121);
#124=DIRECTION('',(0.E0,1.E0,0.E0));
#125=VECTOR('',#124,1.6E0);
#126=CARTESIAN_POINT('',(4.E0,0.E0,-3.5E0));
#127=LINE('',#126,#125);
#128=DIRECTION('',(0.E0,0.E0,-1.E0));
#129=VECTOR('',#128,8.E0);
#130=CARTESIAN_POINT('',(4.E0,1.6E0,4.5E0));
#131=LINE('',#130,#129);
#132=DIRECTION('',(0.E0,-1.E0,0.E0));
#133=VECTOR('',#132,1.2E0);
#134=CARTESIAN_POINT('',(0.E0,2.8E0,2.25E0));
#135=LINE('',#134,#133);
#136=DIRECTION('',(0.E0,-1.E0,0.E0));
#137=VECTOR('',#136,1.2E0);
#138=CARTESIAN_POINT('',(0.E0,2.8E0,-1.25E0));
#139=LINE('',#138,#137);
#140=CARTESIAN_POINT('',(4.E0,0.E0,-4.7E0));
#141=CARTESIAN_POINT('',(-4.E0,0.E0,-4.7E0));
#142=VERTEX_POINT('',#140);
#143=VERTEX_POINT('',#141);
#144=CARTESIAN_POINT('',(-4.E0,0.E0,-3.5E0));
#145=CARTESIAN_POINT('',(4.E0,0.E0,-3.5E0));
#146=VERTEX_POINT('',#144);
#147=VERTEX_POINT('',#145);
#148=CARTESIAN_POINT('',(-4.E0,1.6E0,-3.5E0));
#149=VERTEX_POINT('',#148);
#150=CARTESIAN_POINT('',(4.E0,1.6E0,-3.5E0));
#151=VERTEX_POINT('',#150);
#152=CARTESIAN_POINT('',(-4.E0,2.8E0,-3.5E0));
#153=CARTESIAN_POINT('',(-4.E0,1.6E0,-4.7E0));
#154=VERTEX_POINT('',#152);
#155=VERTEX_POINT('',#153);
#156=CARTESIAN_POINT('',(4.E0,1.6E0,-4.7E0));
#157=VERTEX_POINT('',#156);
#158=CARTESIAN_POINT('',(4.E0,2.8E0,-3.5E0));
#159=VERTEX_POINT('',#158);
#160=CARTESIAN_POINT('',(-3.5E0,1.6E0,5.E0));
#161=CARTESIAN_POINT('',(-4.E0,1.6E0,4.5E0));
#162=VERTEX_POINT('',#160);
#163=VERTEX_POINT('',#161);
#164=CARTESIAN_POINT('',(-4.E0,2.8E0,4.5E0));
#165=VERTEX_POINT('',#164);
#166=CARTESIAN_POINT('',(-3.5E0,2.8E0,5.E0));
#167=VERTEX_POINT('',#166);
#168=CARTESIAN_POINT('',(4.E0,1.6E0,4.5E0));
#169=CARTESIAN_POINT('',(3.5E0,1.6E0,5.E0));
#170=VERTEX_POINT('',#168);
#171=VERTEX_POINT('',#169);
#172=CARTESIAN_POINT('',(3.5E0,2.8E0,5.E0));
#173=VERTEX_POINT('',#172);
#174=CARTESIAN_POINT('',(4.E0,2.8E0,4.5E0));
#175=VERTEX_POINT('',#174);
#176=CARTESIAN_POINT('',(0.E0,2.8E0,2.25E0));
#177=CARTESIAN_POINT('',(0.E0,2.8E0,-1.25E0));
#178=VERTEX_POINT('',#176);
#179=VERTEX_POINT('',#177);
#180=CARTESIAN_POINT('',(0.E0,1.6E0,2.25E0));
#181=CARTESIAN_POINT('',(0.E0,1.6E0,-1.25E0));
#182=VERTEX_POINT('',#180);
#183=VERTEX_POINT('',#181);
#184=CARTESIAN_POINT('',(0.E0,0.E0,0.E0));
#185=DIRECTION('',(0.E0,1.E0,0.E0));
#186=DIRECTION('',(1.E0,0.E0,0.E0));
#187=AXIS2_PLACEMENT_3D('',#184,#185,#186);
#188=PLANE('',#187);
#190=ORIENTED_EDGE('',*,*,#189,.T.);
#192=ORIENTED_EDGE('',*,*,#191,.T.);
#194=ORIENTED_EDGE('',*,*,#193,.T.);
#196=ORIENTED_EDGE('',*,*,#195,.T.);
#197=EDGE_LOOP('',(#190,#192,#194,#196));
#198=FACE_OUTER_BOUND('',#197,.F.);
#200=CARTESIAN_POINT('',(-4.E0,1.6E0,-3.5E0));
#201=DIRECTION('',(0.E0,0.E0,-1.E0));
#202=DIRECTION('',(0.E0,-1.E0,0.E0));
#203=AXIS2_PLACEMENT_3D('',#200,#201,#202);
#204=PLANE('',#203);
#205=ORIENTED_EDGE('',*,*,#189,.F.);
#207=ORIENTED_EDGE('',*,*,#206,.T.);
#209=ORIENTED_EDGE('',*,*,#208,.T.);
#211=ORIENTED_EDGE('',*,*,#210,.F.);
#212=EDGE_LOOP('',(#205,#207,#209,#211));
#213=FACE_OUTER_BOUND('',#212,.F.);
#215=CARTESIAN_POINT('',(-4.E0,0.E0,-4.7E0));
#216=DIRECTION('',(-1.E0,0.E0,0.E0));
#217=DIRECTION('',(0.E0,0.E0,1.E0));
#218=AXIS2_PLACEMENT_3D('',#215,#216,#217);
#219=PLANE('',#218);
#221=ORIENTED_EDGE('',*,*,#220,.T.);
#223=ORIENTED_EDGE('',*,*,#222,.T.);
#224=ORIENTED_EDGE('',*,*,#206,.F.);
#225=ORIENTED_EDGE('',*,*,#195,.F.);
#227=ORIENTED_EDGE('',*,*,#226,.T.);
#229=ORIENTED_EDGE('',*,*,#228,.F.);
#231=ORIENTED_EDGE('',*,*,#230,.T.);
#232=EDGE_LOOP('',(#221,#223,#224,#225,#227,#229,#231));
#233=FACE_OUTER_BOUND('',#232,.F.);
#235=CARTESIAN_POINT('',(-3.75E0,2.2E0,4.75E0));
#236=DIRECTION('',(-7.071067811865E-1,0.E0,7.071067811865E-1));
#237=DIRECTION('',(0.E0,-1.E0,0.E0));
#238=AXIS2_PLACEMENT_3D('',#235,#236,#237);
#239=PLANE('',#238);
#241=ORIENTED_EDGE('',*,*,#240,.T.);
#242=ORIENTED_EDGE('',*,*,#220,.F.);
#244=ORIENTED_EDGE('',*,*,#243,.T.);
#246=ORIENTED_EDGE('',*,*,#245,.T.);
#247=EDGE_LOOP('',(#241,#242,#244,#246));
#248=FACE_OUTER_BOUND('',#247,.F.);
#250=CARTESIAN_POINT('',(-4.E0,1.6E0,5.E0));
#251=DIRECTION('',(0.E0,1.E0,0.E0));
#252=DIRECTION('',(0.E0,0.E0,-1.E0));
#253=AXIS2_PLACEMENT_3D('',#250,#251,#252);
#254=PLANE('',#253);
#255=ORIENTED_EDGE('',*,*,#240,.F.);
#257=ORIENTED_EDGE('',*,*,#256,.T.);
#259=ORIENTED_EDGE('',*,*,#258,.F.);
#261=ORIENTED_EDGE('',*,*,#260,.T.);
#262=ORIENTED_EDGE('',*,*,#208,.F.);
#263=ORIENTED_EDGE('',*,*,#222,.F.);
#264=EDGE_LOOP('',(#255,#257,#259,#261,#262,#263));
#265=FACE_OUTER_BOUND('',#264,.F.);
#267=ORIENTED_EDGE('',*,*,#266,.F.);
#269=ORIENTED_EDGE('',*,*,#268,.F.);
#270=EDGE_LOOP('',(#267,#269));
#271=FACE_BOUND('',#270,.F.);
#273=CARTESIAN_POINT('',(-4.E0,0.E0,5.E0));
#274=DIRECTION('',(0.E0,0.E0,1.E0));
#275=DIRECTION('',(1.E0,0.E0,0.E0));
#276=AXIS2_PLACEMENT_3D('',#273,#274,#275);
#277=PLANE('',#276);
#278=ORIENTED_EDGE('',*,*,#245,.F.);
#280=ORIENTED_EDGE('',*,*,#279,.T.);
#282=ORIENTED_EDGE('',*,*,#281,.T.);
#283=ORIENTED_EDGE('',*,*,#256,.F.);
#284=EDGE_LOOP('',(#278,#280,#282,#283));
#285=FACE_OUTER_BOUND('',#284,.F.);
#287=CARTESIAN_POINT('',(0.E0,2.8E0,0.E0));
#288=DIRECTION('',(0.E0,1.E0,0.E0));
#289=DIRECTION('',(1.E0,0.E0,0.E0));
#290=AXIS2_PLACEMENT_3D('',#287,#288,#289);
#291=PLANE('',#290);
#292=ORIENTED_EDGE('',*,*,#243,.F.);
#293=ORIENTED_EDGE('',*,*,#230,.F.);
#295=ORIENTED_EDGE('',*,*,#294,.F.);
#297=ORIENTED_EDGE('',*,*,#296,.F.);
#299=ORIENTED_EDGE('',*,*,#298,.F.);
#300=ORIENTED_EDGE('',*,*,#279,.F.);
#301=EDGE_LOOP('',(#292,#293,#295,#297,#299,#300));
#302=FACE_OUTER_BOUND('',#301,.F.);
#304=ORIENTED_EDGE('',*,*,#303,.T.);
#306=ORIENTED_EDGE('',*,*,#305,.T.);
#307=EDGE_LOOP('',(#304,#306));
#308=FACE_BOUND('',#307,.F.);
#310=CARTESIAN_POINT('',(4.019044618971E0,1.6E0,-3.5E0));
#311=DIRECTION('',(-1.E0,0.E0,0.E0));
#312=DIRECTION('',(0.E0,1.E0,0.E0));
#313=AXIS2_PLACEMENT_3D('',#310,#311,#312);
#314=CYLINDRICAL_SURFACE('',#313,1.2E0);
#315=ORIENTED_EDGE('',*,*,#228,.T.);
#317=ORIENTED_EDGE('',*,*,#316,.F.);
#319=ORIENTED_EDGE('',*,*,#318,.T.);
#320=ORIENTED_EDGE('',*,*,#294,.T.);
#321=EDGE_LOOP('',(#315,#317,#319,#320));
#322=FACE_OUTER_BOUND('',#321,.F.);
#324=CARTESIAN_POINT('',(4.E0,0.E0,-4.7E0));
#325=DIRECTION('',(0.E0,0.E0,-1.E0));
#326=DIRECTION('',(-1.E0,0.E0,0.E0));
#327=AXIS2_PLACEMENT_3D('',#324,#325,#326);
#328=PLANE('',#327);
#329=ORIENTED_EDGE('',*,*,#316,.T.);
#330=ORIENTED_EDGE('',*,*,#226,.F.);
#331=ORIENTED_EDGE('',*,*,#193,.F.);
#333=ORIENTED_EDGE('',*,*,#332,.T.);
#334=EDGE_LOOP('',(#329,#330,#331,#333));
#335=FACE_OUTER_BOUND('',#334,.F.);
#337=CARTESIAN_POINT('',(4.E0,0.E0,5.E0));
#338=DIRECTION('',(1.E0,0.E0,0.E0));
#339=DIRECTION('',(0.E0,0.E0,-1.E0));
#340=AXIS2_PLACEMENT_3D('',#337,#338,#339);
#341=PLANE('',#340);
#343=ORIENTED_EDGE('',*,*,#342,.F.);
#344=ORIENTED_EDGE('',*,*,#296,.T.);
#345=ORIENTED_EDGE('',*,*,#318,.F.);
#346=ORIENTED_EDGE('',*,*,#332,.F.);
#347=ORIENTED_EDGE('',*,*,#191,.F.);
#348=ORIENTED_EDGE('',*,*,#210,.T.);
#349=ORIENTED_EDGE('',*,*,#260,.F.);
#350=EDGE_LOOP('',(#343,#344,#345,#346,#347,#348,#349));
#351=FACE_OUTER_BOUND('',#350,.F.);
#353=CARTESIAN_POINT('',(3.75E0,2.2E0,4.75E0));
#354=DIRECTION('',(7.071067811865E-1,0.E0,7.071067811865E-1));
#355=DIRECTION('',(0.E0,-1.E0,0.E0));
#356=AXIS2_PLACEMENT_3D('',#353,#354,#355);
#357=PLANE('',#356);
#358=ORIENTED_EDGE('',*,*,#258,.T.);
#359=ORIENTED_EDGE('',*,*,#281,.F.);
#360=ORIENTED_EDGE('',*,*,#298,.T.);
#361=ORIENTED_EDGE('',*,*,#342,.T.);
#362=EDGE_LOOP('',(#358,#359,#360,#361));
#363=FACE_OUTER_BOUND('',#362,.F.);
#365=CARTESIAN_POINT('',(0.E0,2.8E0,5.E-1));
#366=DIRECTION('',(0.E0,1.E0,0.E0));
#367=DIRECTION('',(0.E0,0.E0,1.E0));
#368=AXIS2_PLACEMENT_3D('',#365,#366,#367);
#369=CYLINDRICAL_SURFACE('',#368,1.75E0);
#370=ORIENTED_EDGE('',*,*,#303,.F.);
#372=ORIENTED_EDGE('',*,*,#371,.T.);
#373=ORIENTED_EDGE('',*,*,#266,.T.);
#375=ORIENTED_EDGE('',*,*,#374,.F.);
#376=EDGE_LOOP('',(#370,#372,#373,#375));
#377=FACE_OUTER_BOUND('',#376,.F.);
#379=CARTESIAN_POINT('',(0.E0,2.8E0,5.E-1));
#380=DIRECTION('',(0.E0,1.E0,0.E0));
#381=DIRECTION('',(0.E0,0.E0,1.E0));
#382=AXIS2_PLACEMENT_3D('',#379,#380,#381);
#383=CYLINDRICAL_SURFACE('',#382,1.75E0);
#384=ORIENTED_EDGE('',*,*,#305,.F.);
#385=ORIENTED_EDGE('',*,*,#374,.T.);
#386=ORIENTED_EDGE('',*,*,#268,.T.);
#387=ORIENTED_EDGE('',*,*,#371,.F.);
#388=EDGE_LOOP('',(#384,#385,#386,#387));
#389=FACE_OUTER_BOUND('',#388,.F.);
#391=CLOSED_SHELL('',(#199,#214,#234,#249,#272,#286,#309,#323,#336,#352,#364,
#378,#390));
#392=MANIFOLD_SOLID_BREP('',#391);
#394=DIMENSIONAL_EXPONENTS(0.E0,0.E0,0.E0,0.E0,0.E0,0.E0,0.E0);
#396=PLANE_ANGLE_MEASURE_WITH_UNIT(PLANE_ANGLE_MEASURE(1.745329251994E-2),#395);
#397=(CONVERSION_BASED_UNIT('DEGREE',#396)NAMED_UNIT(#394)PLANE_ANGLE_UNIT());
#399=UNCERTAINTY_MEASURE_WITH_UNIT(LENGTH_MEASURE(1.288086665817E-3),#393,
'distance_accuracy_value',
'Maximum model space distance between geometric entities at asserted connectivities');
#402=APPLICATION_CONTEXT('automotive_design');
#403=APPLICATION_PROTOCOL_DEFINITION('draft international standard',
'automotive_design',1998,#402);
#404=PRODUCT_DEFINITION_CONTEXT('part definition',#402,'design');
#405=PRODUCT_CONTEXT('',#402,'mechanical');
#406=PRODUCT('KANAGU_MM4','KANAGU_MM4','NOT SPECIFIED',(#405));
#407=PRODUCT_DEFINITION_FORMATION_WITH_SPECIFIED_SOURCE('6','LAST_VERSION',#406,
.MADE.);
#411=PRODUCT_TYPE('part','',(#406));
#1=COLOUR_RGB('',8.784E-1,9.49E-1,1.E0);
#42=CIRCLE('',#41,1.2E0);
#55=CIRCLE('',#54,1.75E0);
#60=CIRCLE('',#59,1.75E0);
#101=CIRCLE('',#100,1.75E0);
#106=CIRCLE('',#105,1.75E0);
#123=CIRCLE('',#122,1.2E0);
#189=EDGE_CURVE('',#146,#147,#5,.T.);
#191=EDGE_CURVE('',#147,#142,#9,.T.);
#193=EDGE_CURVE('',#142,#143,#13,.T.);
#195=EDGE_CURVE('',#143,#146,#17,.T.);
#199=ADVANCED_FACE('',(#198),#188,.F.);
#206=EDGE_CURVE('',#146,#149,#33,.T.);
#208=EDGE_CURVE('',#149,#151,#21,.T.);
#210=EDGE_CURVE('',#147,#151,#127,.T.);
#214=ADVANCED_FACE('',(#213),#204,.F.);
#220=EDGE_CURVE('',#165,#163,#25,.T.);
#222=EDGE_CURVE('',#163,#149,#29,.T.);
#226=EDGE_CURVE('',#143,#155,#37,.T.);
#228=EDGE_CURVE('',#154,#155,#42,.T.);
#230=EDGE_CURVE('',#154,#165,#80,.T.);
#234=ADVANCED_FACE('',(#233),#219,.T.);
#240=EDGE_CURVE('',#162,#163,#46,.T.);
#243=EDGE_CURVE('',#165,#167,#76,.T.);
#245=EDGE_CURVE('',#167,#162,#64,.T.);
#249=ADVANCED_FACE('',(#248),#239,.T.);
#256=EDGE_CURVE('',#162,#171,#72,.T.);
#258=EDGE_CURVE('',#170,#171,#50,.T.);
#260=EDGE_CURVE('',#170,#151,#131,.T.);
#266=EDGE_CURVE('',#182,#183,#55,.T.);
#268=EDGE_CURVE('',#183,#182,#60,.T.);
#272=ADVANCED_FACE('',(#265,#271),#254,.F.);
#279=EDGE_CURVE('',#167,#173,#96,.T.);
#281=EDGE_CURVE('',#173,#171,#68,.T.);
#286=ADVANCED_FACE('',(#285),#277,.T.);
#294=EDGE_CURVE('',#159,#154,#84,.T.);
#296=EDGE_CURVE('',#175,#159,#88,.T.);
#298=EDGE_CURVE('',#173,#175,#92,.T.);
#303=EDGE_CURVE('',#178,#179,#101,.T.);
#305=EDGE_CURVE('',#179,#178,#106,.T.);
#309=ADVANCED_FACE('',(#302,#308),#291,.T.);
#316=EDGE_CURVE('',#157,#155,#110,.T.);
#318=EDGE_CURVE('',#157,#159,#123,.T.);
#323=ADVANCED_FACE('',(#322),#314,.T.);
#332=EDGE_CURVE('',#142,#157,#114,.T.);
#336=ADVANCED_FACE('',(#335),#328,.T.);
#342=EDGE_CURVE('',#175,#170,#118,.T.);
#352=ADVANCED_FACE('',(#351),#341,.T.);
#364=ADVANCED_FACE('',(#363),#357,.T.);
#371=EDGE_CURVE('',#178,#182,#135,.T.);
#374=EDGE_CURVE('',#179,#183,#139,.T.);
#378=ADVANCED_FACE('',(#377),#369,.F.);
#390=ADVANCED_FACE('',(#389),#383,.F.);
#393=(LENGTH_UNIT()NAMED_UNIT(*)SI_UNIT(.MILLI.,.METRE.));
#395=(NAMED_UNIT(*)PLANE_ANGLE_UNIT()SI_UNIT($,.RADIAN.));
#398=(NAMED_UNIT(*)SI_UNIT($,.STERADIAN.)SOLID_ANGLE_UNIT());
#400=(GEOMETRIC_REPRESENTATION_CONTEXT(3)GLOBAL_UNCERTAINTY_ASSIGNED_CONTEXT((
#399))GLOBAL_UNIT_ASSIGNED_CONTEXT((#393,#397,#398))REPRESENTATION_CONTEXT
('ID1','3'));
#401=ADVANCED_BREP_SHAPE_REPRESENTATION('',(#392),#400);
#408=PRODUCT_DEFINITION('part definition','',#407,#404);
#409=PRODUCT_DEFINITION_SHAPE('','SHAPE FOR KANAGU_MM4.',#408);
#410=SHAPE_DEFINITION_REPRESENTATION(#409,#401);
ENDSEC;
END-ISO-10303-21;
