ISO-10303-21;
HEADER;
/****************************************************************
 * Generated by software with PDElib inside                    *
 * PDElib Version v51a, created Tue 11/30/2010                  *
 * ITI Transcendata (http://www.transcendata.com/)              *
 ****************************************************************/
FILE_DESCRIPTION((''),'2;1');
FILE_NAME('C:\\W_Vault\\W-India\\Panels\\N1P Large\\N1P LARGE DXF STP\\N1P2436.stp','2013-06-14T16:08:08',('ps'),(''),'Autodesk Inventor 2012','Autodesk Inventor 2012','');
FILE_SCHEMA(('AUTOMOTIVE_DESIGN { 1 0 10303 214 1 1 1 1 }'));
ENDSEC;
DATA;
#5=APPLICATION_CONTEXT('automotive design');
#6=APPLICATION_PROTOCOL_DEFINITION('International Standard','automotive_design',2001,#5);
#7=PRODUCT_CONTEXT('',#5,'mechanical');
#8=PRODUCT('N1P2436-1','N1P2436-1',$,(#7));
#9=PRODUCT_RELATED_PRODUCT_CATEGORY('part',$,(#8));
#10=PRODUCT_DEFINITION_FORMATION('',$,#8);
#11=PRODUCT_DEFINITION_CONTEXT('part definition',#5,'design');
#12=PRODUCT_DEFINITION('',$,#10,#11);
#18=(NAMED_UNIT(*)PLANE_ANGLE_UNIT()SI_UNIT($,.RADIAN.));
#19=DIMENSIONAL_EXPONENTS(0.0,0.0,0.0,0.0,0.0,0.0,0.0);
#20=PLANE_ANGLE_MEASURE_WITH_UNIT(PLANE_ANGLE_MEASURE(0.0174532925),#18);
#24=(CONVERSION_BASED_UNIT('DEGREE',#20)NAMED_UNIT(#19)PLANE_ANGLE_UNIT());
#28=(NAMED_UNIT(*)SI_UNIT($,.STERADIAN.)SOLID_ANGLE_UNIT());
#32=(LENGTH_UNIT()NAMED_UNIT(*)SI_UNIT(.CENTI.,.METRE.));
#33=DIMENSIONAL_EXPONENTS(1.0,0.0,0.0,0.0,0.0,0.0,0.0);
#34=LENGTH_MEASURE_WITH_UNIT(LENGTH_MEASURE(2.54),#32);
#38=(CONVERSION_BASED_UNIT('INCH',#34)LENGTH_UNIT()NAMED_UNIT(#33));
#40=UNCERTAINTY_MEASURE_WITH_UNIT(LENGTH_MEASURE(0.000393700787402),#38,'DISTANCE_ACCURACY_VALUE','');
#42=(GEOMETRIC_REPRESENTATION_CONTEXT(3)GLOBAL_UNCERTAINTY_ASSIGNED_CONTEXT((#40))GLOBAL_UNIT_ASSIGNED_CONTEXT((#24,#28,#38))REPRESENTATION_CONTEXT('None','None'));
#43=AXIS2_PLACEMENT_3D('',#44,#45,#46);
#44=CARTESIAN_POINT('',(0.0,0.0,0.0));
#45=DIRECTION('',(0.0,0.0,1.0));
#46=DIRECTION('',(1.0,0.0,0.0));
#47=SHAPE_REPRESENTATION('',(#43),#42);
#48=PRODUCT_DEFINITION_SHAPE('','',#12);
#49=SHAPE_DEFINITION_REPRESENTATION(#48,#47);
#55=(NAMED_UNIT(*)PLANE_ANGLE_UNIT()SI_UNIT($,.RADIAN.));
#56=DIMENSIONAL_EXPONENTS(0.0,0.0,0.0,0.0,0.0,0.0,0.0);
#57=PLANE_ANGLE_MEASURE_WITH_UNIT(PLANE_ANGLE_MEASURE(0.0174532925),#55);
#61=(CONVERSION_BASED_UNIT('DEGREE',#57)NAMED_UNIT(#56)PLANE_ANGLE_UNIT());
#65=(NAMED_UNIT(*)SI_UNIT($,.STERADIAN.)SOLID_ANGLE_UNIT());
#69=(LENGTH_UNIT()NAMED_UNIT(*)SI_UNIT(.MILLI.,.METRE.));
#71=UNCERTAINTY_MEASURE_WITH_UNIT(LENGTH_MEASURE(0.000001),#69,'DISTANCE_ACCURACY_VALUE','');
#73=(GEOMETRIC_REPRESENTATION_CONTEXT(3)GLOBAL_UNCERTAINTY_ASSIGNED_CONTEXT((#71))GLOBAL_UNIT_ASSIGNED_CONTEXT((#61,#65,#69))REPRESENTATION_CONTEXT('','3D'));
#74=CARTESIAN_POINT('',(21.749999999999993,16.000000000000007,0.046875));
#75=DIRECTION('',(0.0,0.0,1.0));
#76=DIRECTION('',(1.0,0.0,0.0));
#77=AXIS2_PLACEMENT_3D('',#74,#75,#76);
#78=CYLINDRICAL_SURFACE('',#77,0.2815);
#79=CARTESIAN_POINT('',(22.031499999999994,16.000000000000007,0.09375));
#80=VERTEX_POINT('',#79);
#81=CARTESIAN_POINT('',(21.749999999999993,16.000000000000007,0.09375));
#82=DIRECTION('',(0.0,0.0,-1.0));
#83=DIRECTION('',(1.0,0.0,0.0));
#84=AXIS2_PLACEMENT_3D('',#81,#82,#83);
#85=CIRCLE('',#84,0.2815);
#86=EDGE_CURVE('',#80,#80,#85,.T.);
#87=ORIENTED_EDGE('',*,*,#86,.F.);
#88=EDGE_LOOP('',(#87));
#89=FACE_OUTER_BOUND('',#88,.T.);
#90=CARTESIAN_POINT('',(22.031499999999994,16.000000000000007,0.0));
#91=VERTEX_POINT('',#90);
#92=CARTESIAN_POINT('',(21.749999999999993,16.000000000000007,0.0));
#93=DIRECTION('',(0.0,0.0,1.0));
#94=DIRECTION('',(1.0,0.0,0.0));
#95=AXIS2_PLACEMENT_3D('',#92,#93,#94);
#96=CIRCLE('',#95,0.2815);
#97=EDGE_CURVE('',#91,#91,#96,.T.);
#98=ORIENTED_EDGE('',*,*,#97,.F.);
#99=EDGE_LOOP('',(#98));
#100=FACE_BOUND('',#99,.T.);
#101=ADVANCED_FACE('',(#89,#100),#78,.F.);
#102=CARTESIAN_POINT('',(0.749999999999996,16.0,0.046875));
#103=DIRECTION('',(0.0,0.0,1.0));
#104=DIRECTION('',(1.0,0.0,0.0));
#105=AXIS2_PLACEMENT_3D('',#102,#103,#104);
#106=CYLINDRICAL_SURFACE('',#105,0.2815);
#107=CARTESIAN_POINT('',(1.031499999999996,16.0,0.09375));
#108=VERTEX_POINT('',#107);
#109=CARTESIAN_POINT('',(0.749999999999996,16.0,0.09375));
#110=DIRECTION('',(0.0,0.0,-1.0));
#111=DIRECTION('',(1.0,0.0,0.0));
#112=AXIS2_PLACEMENT_3D('',#109,#110,#111);
#113=CIRCLE('',#112,0.2815);
#114=EDGE_CURVE('',#108,#108,#113,.T.);
#115=ORIENTED_EDGE('',*,*,#114,.F.);
#116=EDGE_LOOP('',(#115));
#117=FACE_OUTER_BOUND('',#116,.T.);
#118=CARTESIAN_POINT('',(1.031499999999996,16.0,0.0));
#119=VERTEX_POINT('',#118);
#120=CARTESIAN_POINT('',(0.749999999999996,16.0,0.0));
#121=DIRECTION('',(0.0,0.0,1.0));
#122=DIRECTION('',(1.0,0.0,0.0));
#123=AXIS2_PLACEMENT_3D('',#120,#121,#122);
#124=CIRCLE('',#123,0.2815);
#125=EDGE_CURVE('',#119,#119,#124,.T.);
#126=ORIENTED_EDGE('',*,*,#125,.F.);
#127=EDGE_LOOP('',(#126));
#128=FACE_BOUND('',#127,.T.);
#129=ADVANCED_FACE('',(#117,#128),#106,.F.);
#130=CARTESIAN_POINT('',(2.749999999999999,0.749999999999999,0.046875));
#131=DIRECTION('',(0.0,0.0,1.0));
#132=DIRECTION('',(1.0,0.0,0.0));
#133=AXIS2_PLACEMENT_3D('',#130,#131,#132);
#134=CYLINDRICAL_SURFACE('',#133,0.156);
#135=CARTESIAN_POINT('',(2.905999999999999,0.749999999999999,0.09375));
#136=VERTEX_POINT('',#135);
#137=CARTESIAN_POINT('',(2.749999999999999,0.749999999999999,0.09375));
#138=DIRECTION('',(0.0,0.0,-1.0));
#139=DIRECTION('',(1.0,0.0,0.0));
#140=AXIS2_PLACEMENT_3D('',#137,#138,#139);
#141=CIRCLE('',#140,0.156);
#142=EDGE_CURVE('',#136,#136,#141,.T.);
#143=ORIENTED_EDGE('',*,*,#142,.F.);
#144=EDGE_LOOP('',(#143));
#145=FACE_OUTER_BOUND('',#144,.T.);
#146=CARTESIAN_POINT('',(2.905999999999999,0.749999999999999,0.0));
#147=VERTEX_POINT('',#146);
#148=CARTESIAN_POINT('',(2.749999999999999,0.749999999999999,0.0));
#149=DIRECTION('',(0.0,0.0,1.0));
#150=DIRECTION('',(1.0,0.0,0.0));
#151=AXIS2_PLACEMENT_3D('',#148,#149,#150);
#152=CIRCLE('',#151,0.156);
#153=EDGE_CURVE('',#147,#147,#152,.T.);
#154=ORIENTED_EDGE('',*,*,#153,.F.);
#155=EDGE_LOOP('',(#154));
#156=FACE_BOUND('',#155,.T.);
#157=ADVANCED_FACE('',(#145,#156),#134,.F.);
#158=CARTESIAN_POINT('',(21.749999999999996,0.750000000000006,0.046875));
#159=DIRECTION('',(0.0,0.0,1.0));
#160=DIRECTION('',(1.0,0.0,0.0));
#161=AXIS2_PLACEMENT_3D('',#158,#159,#160);
#162=CYLINDRICAL_SURFACE('',#161,0.2815);
#163=CARTESIAN_POINT('',(22.031500000000001,0.750000000000006,0.09375));
#164=VERTEX_POINT('',#163);
#165=CARTESIAN_POINT('',(21.749999999999996,0.750000000000006,0.09375));
#166=DIRECTION('',(0.0,0.0,-1.0));
#167=DIRECTION('',(1.0,0.0,0.0));
#168=AXIS2_PLACEMENT_3D('',#165,#166,#167);
#169=CIRCLE('',#168,0.2815);
#170=EDGE_CURVE('',#164,#164,#169,.T.);
#171=ORIENTED_EDGE('',*,*,#170,.F.);
#172=EDGE_LOOP('',(#171));
#173=FACE_OUTER_BOUND('',#172,.T.);
#174=CARTESIAN_POINT('',(22.031500000000001,0.750000000000006,0.0));
#175=VERTEX_POINT('',#174);
#176=CARTESIAN_POINT('',(21.749999999999996,0.750000000000006,0.0));
#177=DIRECTION('',(0.0,0.0,1.0));
#178=DIRECTION('',(1.0,0.0,0.0));
#179=AXIS2_PLACEMENT_3D('',#176,#177,#178);
#180=CIRCLE('',#179,0.2815);
#181=EDGE_CURVE('',#175,#175,#180,.T.);
#182=ORIENTED_EDGE('',*,*,#181,.F.);
#183=EDGE_LOOP('',(#182));
#184=FACE_BOUND('',#183,.T.);
#185=ADVANCED_FACE('',(#173,#184),#162,.F.);
#186=CARTESIAN_POINT('',(0.749999999999998,0.750000000000006,0.046875));
#187=DIRECTION('',(0.0,0.0,1.0));
#188=DIRECTION('',(1.0,0.0,0.0));
#189=AXIS2_PLACEMENT_3D('',#186,#187,#188);
#190=CYLINDRICAL_SURFACE('',#189,0.2815);
#191=CARTESIAN_POINT('',(1.0315,0.750000000000006,0.09375));
#192=VERTEX_POINT('',#191);
#193=CARTESIAN_POINT('',(0.749999999999998,0.750000000000006,0.09375));
#194=DIRECTION('',(0.0,0.0,-1.0));
#195=DIRECTION('',(1.0,0.0,0.0));
#196=AXIS2_PLACEMENT_3D('',#193,#194,#195);
#197=CIRCLE('',#196,0.2815);
#198=EDGE_CURVE('',#192,#192,#197,.T.);
#199=ORIENTED_EDGE('',*,*,#198,.F.);
#200=EDGE_LOOP('',(#199));
#201=FACE_OUTER_BOUND('',#200,.T.);
#202=CARTESIAN_POINT('',(1.0315,0.750000000000006,0.0));
#203=VERTEX_POINT('',#202);
#204=CARTESIAN_POINT('',(0.749999999999998,0.750000000000006,0.0));
#205=DIRECTION('',(0.0,0.0,1.0));
#206=DIRECTION('',(1.0,0.0,0.0));
#207=AXIS2_PLACEMENT_3D('',#204,#205,#206);
#208=CIRCLE('',#207,0.2815);
#209=EDGE_CURVE('',#203,#203,#208,.T.);
#210=ORIENTED_EDGE('',*,*,#209,.F.);
#211=EDGE_LOOP('',(#210));
#212=FACE_BOUND('',#211,.T.);
#213=ADVANCED_FACE('',(#201,#212),#190,.F.);
#214=CARTESIAN_POINT('',(21.749999999999993,31.25,0.046875));
#215=DIRECTION('',(0.0,0.0,1.0));
#216=DIRECTION('',(1.0,0.0,0.0));
#217=AXIS2_PLACEMENT_3D('',#214,#215,#216);
#218=CYLINDRICAL_SURFACE('',#217,0.2815);
#219=CARTESIAN_POINT('',(22.031499999999991,31.25,0.09375));
#220=VERTEX_POINT('',#219);
#221=CARTESIAN_POINT('',(21.749999999999993,31.25,0.09375));
#222=DIRECTION('',(0.0,0.0,-1.0));
#223=DIRECTION('',(1.0,0.0,0.0));
#224=AXIS2_PLACEMENT_3D('',#221,#222,#223);
#225=CIRCLE('',#224,0.2815);
#226=EDGE_CURVE('',#220,#220,#225,.T.);
#227=ORIENTED_EDGE('',*,*,#226,.F.);
#228=EDGE_LOOP('',(#227));
#229=FACE_OUTER_BOUND('',#228,.T.);
#230=CARTESIAN_POINT('',(22.031499999999991,31.25,0.0));
#231=VERTEX_POINT('',#230);
#232=CARTESIAN_POINT('',(21.749999999999993,31.25,0.0));
#233=DIRECTION('',(0.0,0.0,1.0));
#234=DIRECTION('',(1.0,0.0,0.0));
#235=AXIS2_PLACEMENT_3D('',#232,#233,#234);
#236=CIRCLE('',#235,0.2815);
#237=EDGE_CURVE('',#231,#231,#236,.T.);
#238=ORIENTED_EDGE('',*,*,#237,.F.);
#239=EDGE_LOOP('',(#238));
#240=FACE_BOUND('',#239,.T.);
#241=ADVANCED_FACE('',(#229,#240),#218,.F.);
#242=CARTESIAN_POINT('',(0.749999999999991,31.25,0.046875));
#243=DIRECTION('',(0.0,0.0,1.0));
#244=DIRECTION('',(1.0,0.0,0.0));
#245=AXIS2_PLACEMENT_3D('',#242,#243,#244);
#246=CYLINDRICAL_SURFACE('',#245,0.2815);
#247=CARTESIAN_POINT('',(1.031499999999991,31.25,0.09375));
#248=VERTEX_POINT('',#247);
#249=CARTESIAN_POINT('',(0.749999999999991,31.25,0.09375));
#250=DIRECTION('',(0.0,0.0,-1.0));
#251=DIRECTION('',(1.0,0.0,0.0));
#252=AXIS2_PLACEMENT_3D('',#249,#250,#251);
#253=CIRCLE('',#252,0.2815);
#254=EDGE_CURVE('',#248,#248,#253,.T.);
#255=ORIENTED_EDGE('',*,*,#254,.F.);
#256=EDGE_LOOP('',(#255));
#257=FACE_OUTER_BOUND('',#256,.T.);
#258=CARTESIAN_POINT('',(1.031499999999991,31.25,0.0));
#259=VERTEX_POINT('',#258);
#260=CARTESIAN_POINT('',(0.749999999999991,31.25,0.0));
#261=DIRECTION('',(0.0,0.0,1.0));
#262=DIRECTION('',(1.0,0.0,0.0));
#263=AXIS2_PLACEMENT_3D('',#260,#261,#262);
#264=CIRCLE('',#263,0.2815);
#265=EDGE_CURVE('',#259,#259,#264,.T.);
#266=ORIENTED_EDGE('',*,*,#265,.F.);
#267=EDGE_LOOP('',(#266));
#268=FACE_BOUND('',#267,.T.);
#269=ADVANCED_FACE('',(#257,#268),#246,.F.);
#270=CARTESIAN_POINT('',(0.0,0.0,0.0));
#271=DIRECTION('',(-1.0,0.0,0.0));
#272=DIRECTION('',(0.0,0.0,1.0));
#273=AXIS2_PLACEMENT_3D('',#270,#271,#272);
#274=PLANE('',#273);
#275=CARTESIAN_POINT('',(0.0,0.0,0.09375));
#276=VERTEX_POINT('',#275);
#277=CARTESIAN_POINT('',(-9.797174E-015,32.0,0.09375));
#278=VERTEX_POINT('',#277);
#279=CARTESIAN_POINT('',(-1.577722E-030,0.0,0.09375));
#280=DIRECTION('',(0.0,1.0,0.0));
#281=VECTOR('',#280,32.0);
#282=LINE('',#279,#281);
#283=EDGE_CURVE('',#276,#278,#282,.T.);
#284=ORIENTED_EDGE('',*,*,#283,.T.);
#285=CARTESIAN_POINT('',(-9.797174E-015,32.0,0.0));
#286=VERTEX_POINT('',#285);
#287=CARTESIAN_POINT('',(-9.797174E-015,32.0,0.0));
#288=DIRECTION('',(0.0,0.0,1.0));
#289=VECTOR('',#288,0.09375);
#290=LINE('',#287,#289);
#291=EDGE_CURVE('',#286,#278,#290,.T.);
#292=ORIENTED_EDGE('',*,*,#291,.F.);
#293=CARTESIAN_POINT('',(0.0,0.0,0.0));
#294=VERTEX_POINT('',#293);
#295=CARTESIAN_POINT('',(-9.797174E-015,32.0,0.0));
#296=DIRECTION('',(0.0,-1.0,0.0));
#297=VECTOR('',#296,32.0);
#298=LINE('',#295,#297);
#299=EDGE_CURVE('',#286,#294,#298,.T.);
#300=ORIENTED_EDGE('',*,*,#299,.T.);
#301=CARTESIAN_POINT('',(0.0,0.0,0.0));
#302=DIRECTION('',(0.0,0.0,1.0));
#303=VECTOR('',#302,0.09375);
#304=LINE('',#301,#303);
#305=EDGE_CURVE('',#294,#276,#304,.T.);
#306=ORIENTED_EDGE('',*,*,#305,.T.);
#307=EDGE_LOOP('',(#284,#292,#300,#306));
#308=FACE_OUTER_BOUND('',#307,.T.);
#309=ADVANCED_FACE('',(#308),#274,.T.);
#310=CARTESIAN_POINT('',(-9.797174E-015,32.0,0.0));
#311=DIRECTION('',(0.0,1.0,0.0));
#312=DIRECTION('',(0.0,0.0,1.0));
#313=AXIS2_PLACEMENT_3D('',#310,#311,#312);
#314=PLANE('',#313);
#315=CARTESIAN_POINT('',(22.499999999999996,32.0,0.09375));
#316=VERTEX_POINT('',#315);
#317=CARTESIAN_POINT('',(-1.421085E-014,32.0,0.09375));
#318=DIRECTION('',(1.0,0.0,0.0));
#319=VECTOR('',#318,22.500000000000011);
#320=LINE('',#317,#319);
#321=EDGE_CURVE('',#278,#316,#320,.T.);
#322=ORIENTED_EDGE('',*,*,#321,.T.);
#323=CARTESIAN_POINT('',(22.499999999999996,32.0,0.0));
#324=VERTEX_POINT('',#323);
#325=CARTESIAN_POINT('',(22.499999999999996,32.0,0.0));
#326=DIRECTION('',(0.0,0.0,1.0));
#327=VECTOR('',#326,0.09375);
#328=LINE('',#325,#327);
#329=EDGE_CURVE('',#324,#316,#328,.T.);
#330=ORIENTED_EDGE('',*,*,#329,.F.);
#331=CARTESIAN_POINT('',(22.499999999999996,32.0,0.0));
#332=DIRECTION('',(-1.0,0.0,0.0));
#333=VECTOR('',#332,22.500000000000011);
#334=LINE('',#331,#333);
#335=EDGE_CURVE('',#324,#286,#334,.T.);
#336=ORIENTED_EDGE('',*,*,#335,.T.);
#337=ORIENTED_EDGE('',*,*,#291,.T.);
#338=EDGE_LOOP('',(#322,#330,#336,#337));
#339=FACE_OUTER_BOUND('',#338,.T.);
#340=ADVANCED_FACE('',(#339),#314,.T.);
#341=CARTESIAN_POINT('',(22.499999999999996,32.0,0.0));
#342=DIRECTION('',(1.0,0.0,0.0));
#343=DIRECTION('',(0.0,0.0,-1.0));
#344=AXIS2_PLACEMENT_3D('',#341,#342,#343);
#345=PLANE('',#344);
#346=CARTESIAN_POINT('',(22.5,0.0,0.09375));
#347=VERTEX_POINT('',#346);
#348=CARTESIAN_POINT('',(22.499999999999996,32.0,0.09375));
#349=DIRECTION('',(0.0,-1.0,0.0));
#350=VECTOR('',#349,32.0);
#351=LINE('',#348,#350);
#352=EDGE_CURVE('',#316,#347,#351,.T.);
#353=ORIENTED_EDGE('',*,*,#352,.T.);
#354=CARTESIAN_POINT('',(22.5,0.0,0.0));
#355=VERTEX_POINT('',#354);
#356=CARTESIAN_POINT('',(22.5,0.0,0.0));
#357=DIRECTION('',(0.0,0.0,1.0));
#358=VECTOR('',#357,0.09375);
#359=LINE('',#356,#358);
#360=EDGE_CURVE('',#355,#347,#359,.T.);
#361=ORIENTED_EDGE('',*,*,#360,.F.);
#362=CARTESIAN_POINT('',(22.5,0.0,0.0));
#363=DIRECTION('',(0.0,1.0,0.0));
#364=VECTOR('',#363,32.0);
#365=LINE('',#362,#364);
#366=EDGE_CURVE('',#355,#324,#365,.T.);
#367=ORIENTED_EDGE('',*,*,#366,.T.);
#368=ORIENTED_EDGE('',*,*,#329,.T.);
#369=EDGE_LOOP('',(#353,#361,#367,#368));
#370=FACE_OUTER_BOUND('',#369,.T.);
#371=ADVANCED_FACE('',(#370),#345,.T.);
#372=CARTESIAN_POINT('',(22.5,0.0,0.0));
#373=DIRECTION('',(0.0,-1.0,0.0));
#374=DIRECTION('',(0.0,0.0,-1.0));
#375=AXIS2_PLACEMENT_3D('',#372,#373,#374);
#376=PLANE('',#375);
#377=CARTESIAN_POINT('',(22.5,0.0,0.09375));
#378=DIRECTION('',(-1.0,0.0,0.0));
#379=VECTOR('',#378,22.5);
#380=LINE('',#377,#379);
#381=EDGE_CURVE('',#347,#276,#380,.T.);
#382=ORIENTED_EDGE('',*,*,#381,.T.);
#383=ORIENTED_EDGE('',*,*,#305,.F.);
#384=CARTESIAN_POINT('',(0.0,0.0,0.0));
#385=DIRECTION('',(1.0,0.0,0.0));
#386=VECTOR('',#385,22.5);
#387=LINE('',#384,#386);
#388=EDGE_CURVE('',#294,#355,#387,.T.);
#389=ORIENTED_EDGE('',*,*,#388,.T.);
#390=ORIENTED_EDGE('',*,*,#360,.T.);
#391=EDGE_LOOP('',(#382,#383,#389,#390));
#392=FACE_OUTER_BOUND('',#391,.T.);
#393=ADVANCED_FACE('',(#392),#376,.T.);
#394=CARTESIAN_POINT('',(11.249999999999996,16.0,0.0));
#395=DIRECTION('',(0.0,0.0,1.0));
#396=DIRECTION('',(1.0,0.0,0.0));
#397=AXIS2_PLACEMENT_3D('',#394,#395,#396);
#398=PLANE('',#397);
#399=ORIENTED_EDGE('',*,*,#388,.F.);
#400=ORIENTED_EDGE('',*,*,#299,.F.);
#401=ORIENTED_EDGE('',*,*,#335,.F.);
#402=ORIENTED_EDGE('',*,*,#366,.F.);
#403=EDGE_LOOP('',(#399,#400,#401,#402));
#404=FACE_OUTER_BOUND('',#403,.T.);
#405=ORIENTED_EDGE('',*,*,#97,.T.);
#406=EDGE_LOOP('',(#405));
#407=FACE_BOUND('',#406,.T.);
#408=ORIENTED_EDGE('',*,*,#125,.T.);
#409=EDGE_LOOP('',(#408));
#410=FACE_BOUND('',#409,.T.);
#411=ORIENTED_EDGE('',*,*,#153,.T.);
#412=EDGE_LOOP('',(#411));
#413=FACE_BOUND('',#412,.T.);
#414=ORIENTED_EDGE('',*,*,#181,.T.);
#415=EDGE_LOOP('',(#414));
#416=FACE_BOUND('',#415,.T.);
#417=ORIENTED_EDGE('',*,*,#209,.T.);
#418=EDGE_LOOP('',(#417));
#419=FACE_BOUND('',#418,.T.);
#420=ORIENTED_EDGE('',*,*,#237,.T.);
#421=EDGE_LOOP('',(#420));
#422=FACE_BOUND('',#421,.T.);
#423=ORIENTED_EDGE('',*,*,#265,.T.);
#424=EDGE_LOOP('',(#423));
#425=FACE_BOUND('',#424,.T.);
#426=ADVANCED_FACE('',(#404,#407,#410,#413,#416,#419,#422,#425),#398,.F.);
#427=CARTESIAN_POINT('',(11.249999999999996,16.0,0.09375));
#428=DIRECTION('',(0.0,0.0,1.0));
#429=DIRECTION('',(1.0,0.0,0.0));
#430=AXIS2_PLACEMENT_3D('',#427,#428,#429);
#431=PLANE('',#430);
#432=ORIENTED_EDGE('',*,*,#283,.F.);
#433=ORIENTED_EDGE('',*,*,#381,.F.);
#434=ORIENTED_EDGE('',*,*,#352,.F.);
#435=ORIENTED_EDGE('',*,*,#321,.F.);
#436=EDGE_LOOP('',(#432,#433,#434,#435));
#437=FACE_OUTER_BOUND('',#436,.T.);
#438=ORIENTED_EDGE('',*,*,#86,.T.);
#439=EDGE_LOOP('',(#438));
#440=FACE_BOUND('',#439,.T.);
#441=ORIENTED_EDGE('',*,*,#114,.T.);
#442=EDGE_LOOP('',(#441));
#443=FACE_BOUND('',#442,.T.);
#444=ORIENTED_EDGE('',*,*,#142,.T.);
#445=EDGE_LOOP('',(#444));
#446=FACE_BOUND('',#445,.T.);
#447=ORIENTED_EDGE('',*,*,#170,.T.);
#448=EDGE_LOOP('',(#447));
#449=FACE_BOUND('',#448,.T.);
#450=ORIENTED_EDGE('',*,*,#198,.T.);
#451=EDGE_LOOP('',(#450));
#452=FACE_BOUND('',#451,.T.);
#453=ORIENTED_EDGE('',*,*,#226,.T.);
#454=EDGE_LOOP('',(#453));
#455=FACE_BOUND('',#454,.T.);
#456=ORIENTED_EDGE('',*,*,#254,.T.);
#457=EDGE_LOOP('',(#456));
#458=FACE_BOUND('',#457,.T.);
#459=ADVANCED_FACE('',(#437,#440,#443,#446,#449,#452,#455,#458),#431,.T.);
#460=CLOSED_SHELL('',(#101,#129,#157,#185,#213,#241,#269,#309,#340,#371,#393,#426,#459));
#461=MANIFOLD_SOLID_BREP('Solid1',#460);
#462=COLOUR_RGB('',0.639216005802155,0.639216005802155,0.686275005340576);
#463=FILL_AREA_STYLE_COLOUR('',#462);
#464=FILL_AREA_STYLE('',(#463));
#465=SURFACE_STYLE_FILL_AREA(#464);
#466=SURFACE_SIDE_STYLE('',(#465));
#467=SURFACE_STYLE_USAGE(.BOTH.,#466);
#468=PRESENTATION_STYLE_ASSIGNMENT((#467));
#469=STYLED_ITEM('',(#468),#101);
#470=STYLED_ITEM('',(#468),#129);
#471=STYLED_ITEM('',(#468),#157);
#472=STYLED_ITEM('',(#468),#185);
#473=STYLED_ITEM('',(#468),#213);
#474=STYLED_ITEM('',(#468),#241);
#475=STYLED_ITEM('',(#468),#269);
#476=STYLED_ITEM('',(#468),#309);
#477=STYLED_ITEM('',(#468),#340);
#478=STYLED_ITEM('',(#468),#371);
#479=STYLED_ITEM('',(#468),#393);
#480=STYLED_ITEM('',(#468),#426);
#481=STYLED_ITEM('',(#468),#459);
#482=MECHANICAL_DESIGN_GEOMETRIC_PRESENTATION_REPRESENTATION('',(#469,#470,#471,#472,#473,#474,#475,#476,#477,#478,#479,#480,#481,#490),#73);
#483=COLOUR_RGB('Metal-Steel',0.639216005802155,0.639216005802155,0.686275005340576);
#484=FILL_AREA_STYLE_COLOUR('Metal-Steel',#483);
#485=FILL_AREA_STYLE('Metal-Steel',(#484));
#486=SURFACE_STYLE_FILL_AREA(#485);
#487=SURFACE_SIDE_STYLE('Metal-Steel',(#486));
#488=SURFACE_STYLE_USAGE(.BOTH.,#487);
#489=PRESENTATION_STYLE_ASSIGNMENT((#488));
#490=STYLED_ITEM('',(#489),#461);
#491=ADVANCED_BREP_SHAPE_REPRESENTATION('ABSR',(#461),#42);
#492=SHAPE_REPRESENTATION_RELATIONSHIP('SRR','None',#491,#47);
ENDSEC;
END-ISO-10303-21;
