ISO-10303-21;
HEADER;
/****************************************************************
 * Generated by software with PDElib inside                    *
 * PDElib Version v51a, created Tue 11/30/2010                  *
 * ITI Transcendata (http://www.transcendata.com/)              *
 ****************************************************************/
FILE_DESCRIPTION((''),'2;1');
FILE_NAME('C:\\W_Vault\\W-India\\Panels\\N1P Large\\N1P LARGE DXF STP\\N1P3036.stp','2013-06-14T16:08:27',('ps'),(''),'Autodesk Inventor 2012','Autodesk Inventor 2012','');
FILE_SCHEMA(('AUTOMOTIVE_DESIGN { 1 0 10303 214 1 1 1 1 }'));
ENDSEC;
DATA;
#5=APPLICATION_CONTEXT('automotive design');
#6=APPLICATION_PROTOCOL_DEFINITION('International Standard','automotive_design',2001,#5);
#7=PRODUCT_CONTEXT('',#5,'mechanical');
#8=PRODUCT('N1P3036-1','N1P3036-1',$,(#7));
#9=PRODUCT_RELATED_PRODUCT_CATEGORY('part',$,(#8));
#10=PRODUCT_DEFINITION_FORMATION('',$,#8);
#11=PRODUCT_DEFINITION_CONTEXT('part definition',#5,'design');
#12=PRODUCT_DEFINITION('',$,#10,#11);
#18=(NAMED_UNIT(*)PLANE_ANGLE_UNIT()SI_UNIT($,.RADIAN.));
#19=DIMENSIONAL_EXPONENTS(0.0,0.0,0.0,0.0,0.0,0.0,0.0);
#20=PLANE_ANGLE_MEASURE_WITH_UNIT(PLANE_ANGLE_MEASURE(0.0174532925),#18);
#24=(CONVERSION_BASED_UNIT('DEGREE',#20)NAMED_UNIT(#19)PLANE_ANGLE_UNIT());
#28=(NAMED_UNIT(*)SI_UNIT($,.STERADIAN.)SOLID_ANGLE_UNIT());
#32=(LENGTH_UNIT()NAMED_UNIT(*)SI_UNIT(.CENTI.,.METRE.));
#33=DIMENSIONAL_EXPONENTS(1.0,0.0,0.0,0.0,0.0,0.0,0.0);
#34=LENGTH_MEASURE_WITH_UNIT(LENGTH_MEASURE(2.54),#32);
#38=(CONVERSION_BASED_UNIT('INCH',#34)LENGTH_UNIT()NAMED_UNIT(#33));
#40=UNCERTAINTY_MEASURE_WITH_UNIT(LENGTH_MEASURE(0.000393700787402),#38,'DISTANCE_ACCURACY_VALUE','');
#42=(GEOMETRIC_REPRESENTATION_CONTEXT(3)GLOBAL_UNCERTAINTY_ASSIGNED_CONTEXT((#40))GLOBAL_UNIT_ASSIGNED_CONTEXT((#24,#28,#38))REPRESENTATION_CONTEXT('None','None'));
#43=AXIS2_PLACEMENT_3D('',#44,#45,#46);
#44=CARTESIAN_POINT('',(0.0,0.0,0.0));
#45=DIRECTION('',(0.0,0.0,1.0));
#46=DIRECTION('',(1.0,0.0,0.0));
#47=SHAPE_REPRESENTATION('',(#43),#42);
#48=PRODUCT_DEFINITION_SHAPE('','',#12);
#49=SHAPE_DEFINITION_REPRESENTATION(#48,#47);
#55=(NAMED_UNIT(*)PLANE_ANGLE_UNIT()SI_UNIT($,.RADIAN.));
#56=DIMENSIONAL_EXPONENTS(0.0,0.0,0.0,0.0,0.0,0.0,0.0);
#57=PLANE_ANGLE_MEASURE_WITH_UNIT(PLANE_ANGLE_MEASURE(0.0174532925),#55);
#61=(CONVERSION_BASED_UNIT('DEGREE',#57)NAMED_UNIT(#56)PLANE_ANGLE_UNIT());
#65=(NAMED_UNIT(*)SI_UNIT($,.STERADIAN.)SOLID_ANGLE_UNIT());
#69=(LENGTH_UNIT()NAMED_UNIT(*)SI_UNIT(.MILLI.,.METRE.));
#71=UNCERTAINTY_MEASURE_WITH_UNIT(LENGTH_MEASURE(0.000001),#69,'DISTANCE_ACCURACY_VALUE','');
#73=(GEOMETRIC_REPRESENTATION_CONTEXT(3)GLOBAL_UNCERTAINTY_ASSIGNED_CONTEXT((#71))GLOBAL_UNIT_ASSIGNED_CONTEXT((#61,#65,#69))REPRESENTATION_CONTEXT('','3D'));
#74=CARTESIAN_POINT('',(27.749999999999996,16.000000000000007,0.046875));
#75=DIRECTION('',(0.0,0.0,1.0));
#76=DIRECTION('',(1.0,0.0,0.0));
#77=AXIS2_PLACEMENT_3D('',#74,#75,#76);
#78=CYLINDRICAL_SURFACE('',#77,0.2815);
#79=CARTESIAN_POINT('',(28.031499999999998,16.000000000000007,0.09375));
#80=VERTEX_POINT('',#79);
#81=CARTESIAN_POINT('',(27.749999999999996,16.000000000000007,0.09375));
#82=DIRECTION('',(0.0,0.0,-1.0));
#83=DIRECTION('',(1.0,0.0,0.0));
#84=AXIS2_PLACEMENT_3D('',#81,#82,#83);
#85=CIRCLE('',#84,0.2815);
#86=EDGE_CURVE('',#80,#80,#85,.T.);
#87=ORIENTED_EDGE('',*,*,#86,.F.);
#88=EDGE_LOOP('',(#87));
#89=FACE_OUTER_BOUND('',#88,.T.);
#90=CARTESIAN_POINT('',(28.031499999999998,16.000000000000007,0.0));
#91=VERTEX_POINT('',#90);
#92=CARTESIAN_POINT('',(27.749999999999996,16.000000000000007,0.0));
#93=DIRECTION('',(0.0,0.0,1.0));
#94=DIRECTION('',(1.0,0.0,0.0));
#95=AXIS2_PLACEMENT_3D('',#92,#93,#94);
#96=CIRCLE('',#95,0.2815);
#97=EDGE_CURVE('',#91,#91,#96,.T.);
#98=ORIENTED_EDGE('',*,*,#97,.F.);
#99=EDGE_LOOP('',(#98));
#100=FACE_BOUND('',#99,.T.);
#101=ADVANCED_FACE('',(#89,#100),#78,.F.);
#102=CARTESIAN_POINT('',(0.749999999999996,15.999999999999998,0.046875));
#103=DIRECTION('',(0.0,0.0,1.0));
#104=DIRECTION('',(1.0,0.0,0.0));
#105=AXIS2_PLACEMENT_3D('',#102,#103,#104);
#106=CYLINDRICAL_SURFACE('',#105,0.2815);
#107=CARTESIAN_POINT('',(1.031499999999996,15.999999999999998,0.09375));
#108=VERTEX_POINT('',#107);
#109=CARTESIAN_POINT('',(0.749999999999996,15.999999999999998,0.09375));
#110=DIRECTION('',(0.0,0.0,-1.0));
#111=DIRECTION('',(1.0,0.0,0.0));
#112=AXIS2_PLACEMENT_3D('',#109,#110,#111);
#113=CIRCLE('',#112,0.2815);
#114=EDGE_CURVE('',#108,#108,#113,.T.);
#115=ORIENTED_EDGE('',*,*,#114,.F.);
#116=EDGE_LOOP('',(#115));
#117=FACE_OUTER_BOUND('',#116,.T.);
#118=CARTESIAN_POINT('',(1.031499999999996,15.999999999999998,0.0));
#119=VERTEX_POINT('',#118);
#120=CARTESIAN_POINT('',(0.749999999999996,15.999999999999998,0.0));
#121=DIRECTION('',(0.0,0.0,1.0));
#122=DIRECTION('',(1.0,0.0,0.0));
#123=AXIS2_PLACEMENT_3D('',#120,#121,#122);
#124=CIRCLE('',#123,0.2815);
#125=EDGE_CURVE('',#119,#119,#124,.T.);
#126=ORIENTED_EDGE('',*,*,#125,.F.);
#127=EDGE_LOOP('',(#126));
#128=FACE_BOUND('',#127,.T.);
#129=ADVANCED_FACE('',(#117,#128),#106,.F.);
#130=CARTESIAN_POINT('',(14.250000000000004,0.749999999999995,0.046875));
#131=DIRECTION('',(0.0,0.0,1.0));
#132=DIRECTION('',(1.0,0.0,0.0));
#133=AXIS2_PLACEMENT_3D('',#130,#131,#132);
#134=CYLINDRICAL_SURFACE('',#133,0.2815);
#135=CARTESIAN_POINT('',(14.531500000000003,0.749999999999995,0.09375));
#136=VERTEX_POINT('',#135);
#137=CARTESIAN_POINT('',(14.250000000000004,0.749999999999995,0.09375));
#138=DIRECTION('',(0.0,0.0,-1.0));
#139=DIRECTION('',(1.0,0.0,0.0));
#140=AXIS2_PLACEMENT_3D('',#137,#138,#139);
#141=CIRCLE('',#140,0.2815);
#142=EDGE_CURVE('',#136,#136,#141,.T.);
#143=ORIENTED_EDGE('',*,*,#142,.F.);
#144=EDGE_LOOP('',(#143));
#145=FACE_OUTER_BOUND('',#144,.T.);
#146=CARTESIAN_POINT('',(14.531500000000003,0.749999999999995,0.0));
#147=VERTEX_POINT('',#146);
#148=CARTESIAN_POINT('',(14.250000000000004,0.749999999999995,0.0));
#149=DIRECTION('',(0.0,0.0,1.0));
#150=DIRECTION('',(1.0,0.0,0.0));
#151=AXIS2_PLACEMENT_3D('',#148,#149,#150);
#152=CIRCLE('',#151,0.2815);
#153=EDGE_CURVE('',#147,#147,#152,.T.);
#154=ORIENTED_EDGE('',*,*,#153,.F.);
#155=EDGE_LOOP('',(#154));
#156=FACE_BOUND('',#155,.T.);
#157=ADVANCED_FACE('',(#145,#156),#134,.F.);
#158=CARTESIAN_POINT('',(14.249999999999993,31.25,0.046875));
#159=DIRECTION('',(0.0,0.0,1.0));
#160=DIRECTION('',(1.0,0.0,0.0));
#161=AXIS2_PLACEMENT_3D('',#158,#159,#160);
#162=CYLINDRICAL_SURFACE('',#161,0.2815);
#163=CARTESIAN_POINT('',(14.531499999999992,31.25,0.09375));
#164=VERTEX_POINT('',#163);
#165=CARTESIAN_POINT('',(14.249999999999993,31.25,0.09375));
#166=DIRECTION('',(0.0,0.0,-1.0));
#167=DIRECTION('',(1.0,0.0,0.0));
#168=AXIS2_PLACEMENT_3D('',#165,#166,#167);
#169=CIRCLE('',#168,0.2815);
#170=EDGE_CURVE('',#164,#164,#169,.T.);
#171=ORIENTED_EDGE('',*,*,#170,.F.);
#172=EDGE_LOOP('',(#171));
#173=FACE_OUTER_BOUND('',#172,.T.);
#174=CARTESIAN_POINT('',(14.531499999999992,31.25,0.0));
#175=VERTEX_POINT('',#174);
#176=CARTESIAN_POINT('',(14.249999999999993,31.25,0.0));
#177=DIRECTION('',(0.0,0.0,1.0));
#178=DIRECTION('',(1.0,0.0,0.0));
#179=AXIS2_PLACEMENT_3D('',#176,#177,#178);
#180=CIRCLE('',#179,0.2815);
#181=EDGE_CURVE('',#175,#175,#180,.T.);
#182=ORIENTED_EDGE('',*,*,#181,.F.);
#183=EDGE_LOOP('',(#182));
#184=FACE_BOUND('',#183,.T.);
#185=ADVANCED_FACE('',(#173,#184),#162,.F.);
#186=CARTESIAN_POINT('',(2.749999999999999,0.749999999999999,0.046875));
#187=DIRECTION('',(0.0,0.0,1.0));
#188=DIRECTION('',(1.0,0.0,0.0));
#189=AXIS2_PLACEMENT_3D('',#186,#187,#188);
#190=CYLINDRICAL_SURFACE('',#189,0.156);
#191=CARTESIAN_POINT('',(2.905999999999999,0.749999999999999,0.09375));
#192=VERTEX_POINT('',#191);
#193=CARTESIAN_POINT('',(2.749999999999999,0.749999999999999,0.09375));
#194=DIRECTION('',(0.0,0.0,-1.0));
#195=DIRECTION('',(1.0,0.0,0.0));
#196=AXIS2_PLACEMENT_3D('',#193,#194,#195);
#197=CIRCLE('',#196,0.156);
#198=EDGE_CURVE('',#192,#192,#197,.T.);
#199=ORIENTED_EDGE('',*,*,#198,.F.);
#200=EDGE_LOOP('',(#199));
#201=FACE_OUTER_BOUND('',#200,.T.);
#202=CARTESIAN_POINT('',(2.905999999999999,0.749999999999999,0.0));
#203=VERTEX_POINT('',#202);
#204=CARTESIAN_POINT('',(2.749999999999999,0.749999999999999,0.0));
#205=DIRECTION('',(0.0,0.0,1.0));
#206=DIRECTION('',(1.0,0.0,0.0));
#207=AXIS2_PLACEMENT_3D('',#204,#205,#206);
#208=CIRCLE('',#207,0.156);
#209=EDGE_CURVE('',#203,#203,#208,.T.);
#210=ORIENTED_EDGE('',*,*,#209,.F.);
#211=EDGE_LOOP('',(#210));
#212=FACE_BOUND('',#211,.T.);
#213=ADVANCED_FACE('',(#201,#212),#190,.F.);
#214=CARTESIAN_POINT('',(27.75,0.750000000000011,0.046875));
#215=DIRECTION('',(0.0,0.0,1.0));
#216=DIRECTION('',(1.0,0.0,0.0));
#217=AXIS2_PLACEMENT_3D('',#214,#215,#216);
#218=CYLINDRICAL_SURFACE('',#217,0.2815);
#219=CARTESIAN_POINT('',(28.031500000000005,0.750000000000011,0.09375));
#220=VERTEX_POINT('',#219);
#221=CARTESIAN_POINT('',(27.75,0.750000000000011,0.09375));
#222=DIRECTION('',(0.0,0.0,-1.0));
#223=DIRECTION('',(1.0,0.0,0.0));
#224=AXIS2_PLACEMENT_3D('',#221,#222,#223);
#225=CIRCLE('',#224,0.2815);
#226=EDGE_CURVE('',#220,#220,#225,.T.);
#227=ORIENTED_EDGE('',*,*,#226,.F.);
#228=EDGE_LOOP('',(#227));
#229=FACE_OUTER_BOUND('',#228,.T.);
#230=CARTESIAN_POINT('',(28.031500000000005,0.750000000000011,0.0));
#231=VERTEX_POINT('',#230);
#232=CARTESIAN_POINT('',(27.75,0.750000000000011,0.0));
#233=DIRECTION('',(0.0,0.0,1.0));
#234=DIRECTION('',(1.0,0.0,0.0));
#235=AXIS2_PLACEMENT_3D('',#232,#233,#234);
#236=CIRCLE('',#235,0.2815);
#237=EDGE_CURVE('',#231,#231,#236,.T.);
#238=ORIENTED_EDGE('',*,*,#237,.F.);
#239=EDGE_LOOP('',(#238));
#240=FACE_BOUND('',#239,.T.);
#241=ADVANCED_FACE('',(#229,#240),#218,.F.);
#242=CARTESIAN_POINT('',(0.75,0.750000000000006,0.046875));
#243=DIRECTION('',(0.0,0.0,1.0));
#244=DIRECTION('',(1.0,0.0,0.0));
#245=AXIS2_PLACEMENT_3D('',#242,#243,#244);
#246=CYLINDRICAL_SURFACE('',#245,0.2815);
#247=CARTESIAN_POINT('',(1.031500000000003,0.750000000000006,0.09375));
#248=VERTEX_POINT('',#247);
#249=CARTESIAN_POINT('',(0.75,0.750000000000006,0.09375));
#250=DIRECTION('',(0.0,0.0,-1.0));
#251=DIRECTION('',(1.0,0.0,0.0));
#252=AXIS2_PLACEMENT_3D('',#249,#250,#251);
#253=CIRCLE('',#252,0.2815);
#254=EDGE_CURVE('',#248,#248,#253,.T.);
#255=ORIENTED_EDGE('',*,*,#254,.F.);
#256=EDGE_LOOP('',(#255));
#257=FACE_OUTER_BOUND('',#256,.T.);
#258=CARTESIAN_POINT('',(1.031500000000003,0.750000000000006,0.0));
#259=VERTEX_POINT('',#258);
#260=CARTESIAN_POINT('',(0.75,0.750000000000006,0.0));
#261=DIRECTION('',(0.0,0.0,1.0));
#262=DIRECTION('',(1.0,0.0,0.0));
#263=AXIS2_PLACEMENT_3D('',#260,#261,#262);
#264=CIRCLE('',#263,0.2815);
#265=EDGE_CURVE('',#259,#259,#264,.T.);
#266=ORIENTED_EDGE('',*,*,#265,.F.);
#267=EDGE_LOOP('',(#266));
#268=FACE_BOUND('',#267,.T.);
#269=ADVANCED_FACE('',(#257,#268),#246,.F.);
#270=CARTESIAN_POINT('',(27.749999999999989,31.250000000000007,0.046875));
#271=DIRECTION('',(0.0,0.0,1.0));
#272=DIRECTION('',(1.0,0.0,0.0));
#273=AXIS2_PLACEMENT_3D('',#270,#271,#272);
#274=CYLINDRICAL_SURFACE('',#273,0.2815);
#275=CARTESIAN_POINT('',(28.031499999999994,31.250000000000007,0.09375));
#276=VERTEX_POINT('',#275);
#277=CARTESIAN_POINT('',(27.749999999999989,31.250000000000007,0.09375));
#278=DIRECTION('',(0.0,0.0,-1.0));
#279=DIRECTION('',(1.0,0.0,0.0));
#280=AXIS2_PLACEMENT_3D('',#277,#278,#279);
#281=CIRCLE('',#280,0.2815);
#282=EDGE_CURVE('',#276,#276,#281,.T.);
#283=ORIENTED_EDGE('',*,*,#282,.F.);
#284=EDGE_LOOP('',(#283));
#285=FACE_OUTER_BOUND('',#284,.T.);
#286=CARTESIAN_POINT('',(28.031499999999994,31.250000000000007,0.0));
#287=VERTEX_POINT('',#286);
#288=CARTESIAN_POINT('',(27.749999999999989,31.250000000000007,0.0));
#289=DIRECTION('',(0.0,0.0,1.0));
#290=DIRECTION('',(1.0,0.0,0.0));
#291=AXIS2_PLACEMENT_3D('',#288,#289,#290);
#292=CIRCLE('',#291,0.2815);
#293=EDGE_CURVE('',#287,#287,#292,.T.);
#294=ORIENTED_EDGE('',*,*,#293,.F.);
#295=EDGE_LOOP('',(#294));
#296=FACE_BOUND('',#295,.T.);
#297=ADVANCED_FACE('',(#285,#296),#274,.F.);
#298=CARTESIAN_POINT('',(0.749999999999989,31.25,0.046875));
#299=DIRECTION('',(0.0,0.0,1.0));
#300=DIRECTION('',(1.0,0.0,0.0));
#301=AXIS2_PLACEMENT_3D('',#298,#299,#300);
#302=CYLINDRICAL_SURFACE('',#301,0.2815);
#303=CARTESIAN_POINT('',(1.031499999999989,31.25,0.09375));
#304=VERTEX_POINT('',#303);
#305=CARTESIAN_POINT('',(0.749999999999989,31.25,0.09375));
#306=DIRECTION('',(0.0,0.0,-1.0));
#307=DIRECTION('',(1.0,0.0,0.0));
#308=AXIS2_PLACEMENT_3D('',#305,#306,#307);
#309=CIRCLE('',#308,0.2815);
#310=EDGE_CURVE('',#304,#304,#309,.T.);
#311=ORIENTED_EDGE('',*,*,#310,.F.);
#312=EDGE_LOOP('',(#311));
#313=FACE_OUTER_BOUND('',#312,.T.);
#314=CARTESIAN_POINT('',(1.031499999999989,31.25,0.0));
#315=VERTEX_POINT('',#314);
#316=CARTESIAN_POINT('',(0.749999999999989,31.25,0.0));
#317=DIRECTION('',(0.0,0.0,1.0));
#318=DIRECTION('',(1.0,0.0,0.0));
#319=AXIS2_PLACEMENT_3D('',#316,#317,#318);
#320=CIRCLE('',#319,0.2815);
#321=EDGE_CURVE('',#315,#315,#320,.T.);
#322=ORIENTED_EDGE('',*,*,#321,.F.);
#323=EDGE_LOOP('',(#322));
#324=FACE_BOUND('',#323,.T.);
#325=ADVANCED_FACE('',(#313,#324),#302,.F.);
#326=CARTESIAN_POINT('',(0.0,0.0,0.0));
#327=DIRECTION('',(-1.0,0.0,0.0));
#328=DIRECTION('',(0.0,0.0,1.0));
#329=AXIS2_PLACEMENT_3D('',#326,#327,#328);
#330=PLANE('',#329);
#331=CARTESIAN_POINT('',(0.0,0.0,0.09375));
#332=VERTEX_POINT('',#331);
#333=CARTESIAN_POINT('',(-9.797174E-015,32.0,0.09375));
#334=VERTEX_POINT('',#333);
#335=CARTESIAN_POINT('',(-1.577722E-030,0.0,0.09375));
#336=DIRECTION('',(0.0,1.0,0.0));
#337=VECTOR('',#336,32.0);
#338=LINE('',#335,#337);
#339=EDGE_CURVE('',#332,#334,#338,.T.);
#340=ORIENTED_EDGE('',*,*,#339,.T.);
#341=CARTESIAN_POINT('',(-9.797174E-015,32.0,0.0));
#342=VERTEX_POINT('',#341);
#343=CARTESIAN_POINT('',(-9.797174E-015,32.0,0.0));
#344=DIRECTION('',(0.0,0.0,1.0));
#345=VECTOR('',#344,0.09375);
#346=LINE('',#343,#345);
#347=EDGE_CURVE('',#342,#334,#346,.T.);
#348=ORIENTED_EDGE('',*,*,#347,.F.);
#349=CARTESIAN_POINT('',(0.0,0.0,0.0));
#350=VERTEX_POINT('',#349);
#351=CARTESIAN_POINT('',(-9.797174E-015,32.0,0.0));
#352=DIRECTION('',(0.0,-1.0,0.0));
#353=VECTOR('',#352,32.0);
#354=LINE('',#351,#353);
#355=EDGE_CURVE('',#342,#350,#354,.T.);
#356=ORIENTED_EDGE('',*,*,#355,.T.);
#357=CARTESIAN_POINT('',(0.0,0.0,0.0));
#358=DIRECTION('',(0.0,0.0,1.0));
#359=VECTOR('',#358,0.09375);
#360=LINE('',#357,#359);
#361=EDGE_CURVE('',#350,#332,#360,.T.);
#362=ORIENTED_EDGE('',*,*,#361,.T.);
#363=EDGE_LOOP('',(#340,#348,#356,#362));
#364=FACE_OUTER_BOUND('',#363,.T.);
#365=ADVANCED_FACE('',(#364),#330,.T.);
#366=CARTESIAN_POINT('',(-9.797174E-015,32.0,0.0));
#367=DIRECTION('',(0.0,1.0,0.0));
#368=DIRECTION('',(0.0,0.0,1.0));
#369=AXIS2_PLACEMENT_3D('',#366,#367,#368);
#370=PLANE('',#369);
#371=CARTESIAN_POINT('',(28.499999999999996,32.000000000000007,0.09375));
#372=VERTEX_POINT('',#371);
#373=CARTESIAN_POINT('',(-1.065814E-014,32.0,0.09375));
#374=DIRECTION('',(1.0,0.0,0.0));
#375=VECTOR('',#374,28.500000000000007);
#376=LINE('',#373,#375);
#377=EDGE_CURVE('',#334,#372,#376,.T.);
#378=ORIENTED_EDGE('',*,*,#377,.T.);
#379=CARTESIAN_POINT('',(28.499999999999996,32.000000000000007,0.0));
#380=VERTEX_POINT('',#379);
#381=CARTESIAN_POINT('',(28.499999999999996,32.000000000000007,0.0));
#382=DIRECTION('',(0.0,0.0,1.0));
#383=VECTOR('',#382,0.09375);
#384=LINE('',#381,#383);
#385=EDGE_CURVE('',#380,#372,#384,.T.);
#386=ORIENTED_EDGE('',*,*,#385,.F.);
#387=CARTESIAN_POINT('',(28.499999999999996,32.000000000000007,0.0));
#388=DIRECTION('',(-1.0,0.0,0.0));
#389=VECTOR('',#388,28.500000000000007);
#390=LINE('',#387,#389);
#391=EDGE_CURVE('',#380,#342,#390,.T.);
#392=ORIENTED_EDGE('',*,*,#391,.T.);
#393=ORIENTED_EDGE('',*,*,#347,.T.);
#394=EDGE_LOOP('',(#378,#386,#392,#393));
#395=FACE_OUTER_BOUND('',#394,.T.);
#396=ADVANCED_FACE('',(#395),#370,.T.);
#397=CARTESIAN_POINT('',(28.499999999999996,32.000000000000007,0.0));
#398=DIRECTION('',(1.0,0.0,0.0));
#399=DIRECTION('',(0.0,0.0,-1.0));
#400=AXIS2_PLACEMENT_3D('',#397,#398,#399);
#401=PLANE('',#400);
#402=CARTESIAN_POINT('',(28.500000000000004,0.0,0.09375));
#403=VERTEX_POINT('',#402);
#404=CARTESIAN_POINT('',(28.499999999999996,32.000000000000007,0.09375));
#405=DIRECTION('',(0.0,-1.0,0.0));
#406=VECTOR('',#405,32.000000000000007);
#407=LINE('',#404,#406);
#408=EDGE_CURVE('',#372,#403,#407,.T.);
#409=ORIENTED_EDGE('',*,*,#408,.T.);
#410=CARTESIAN_POINT('',(28.500000000000004,0.0,0.0));
#411=VERTEX_POINT('',#410);
#412=CARTESIAN_POINT('',(28.500000000000004,0.0,0.0));
#413=DIRECTION('',(0.0,0.0,1.0));
#414=VECTOR('',#413,0.09375);
#415=LINE('',#412,#414);
#416=EDGE_CURVE('',#411,#403,#415,.T.);
#417=ORIENTED_EDGE('',*,*,#416,.F.);
#418=CARTESIAN_POINT('',(28.500000000000004,0.0,0.0));
#419=DIRECTION('',(0.0,1.0,0.0));
#420=VECTOR('',#419,32.000000000000007);
#421=LINE('',#418,#420);
#422=EDGE_CURVE('',#411,#380,#421,.T.);
#423=ORIENTED_EDGE('',*,*,#422,.T.);
#424=ORIENTED_EDGE('',*,*,#385,.T.);
#425=EDGE_LOOP('',(#409,#417,#423,#424));
#426=FACE_OUTER_BOUND('',#425,.T.);
#427=ADVANCED_FACE('',(#426),#401,.T.);
#428=CARTESIAN_POINT('',(28.500000000000004,0.0,0.0));
#429=DIRECTION('',(0.0,-1.0,0.0));
#430=DIRECTION('',(0.0,0.0,-1.0));
#431=AXIS2_PLACEMENT_3D('',#428,#429,#430);
#432=PLANE('',#431);
#433=CARTESIAN_POINT('',(28.500000000000004,0.0,0.09375));
#434=DIRECTION('',(-1.0,0.0,0.0));
#435=VECTOR('',#434,28.500000000000004);
#436=LINE('',#433,#435);
#437=EDGE_CURVE('',#403,#332,#436,.T.);
#438=ORIENTED_EDGE('',*,*,#437,.T.);
#439=ORIENTED_EDGE('',*,*,#361,.F.);
#440=CARTESIAN_POINT('',(0.0,0.0,0.0));
#441=DIRECTION('',(1.0,0.0,0.0));
#442=VECTOR('',#441,28.500000000000004);
#443=LINE('',#440,#442);
#444=EDGE_CURVE('',#350,#411,#443,.T.);
#445=ORIENTED_EDGE('',*,*,#444,.T.);
#446=ORIENTED_EDGE('',*,*,#416,.T.);
#447=EDGE_LOOP('',(#438,#439,#445,#446));
#448=FACE_OUTER_BOUND('',#447,.T.);
#449=ADVANCED_FACE('',(#448),#432,.T.);
#450=CARTESIAN_POINT('',(14.249999999999998,16.0,0.0));
#451=DIRECTION('',(0.0,0.0,1.0));
#452=DIRECTION('',(1.0,0.0,0.0));
#453=AXIS2_PLACEMENT_3D('',#450,#451,#452);
#454=PLANE('',#453);
#455=ORIENTED_EDGE('',*,*,#444,.F.);
#456=ORIENTED_EDGE('',*,*,#355,.F.);
#457=ORIENTED_EDGE('',*,*,#391,.F.);
#458=ORIENTED_EDGE('',*,*,#422,.F.);
#459=EDGE_LOOP('',(#455,#456,#457,#458));
#460=FACE_OUTER_BOUND('',#459,.T.);
#461=ORIENTED_EDGE('',*,*,#97,.T.);
#462=EDGE_LOOP('',(#461));
#463=FACE_BOUND('',#462,.T.);
#464=ORIENTED_EDGE('',*,*,#125,.T.);
#465=EDGE_LOOP('',(#464));
#466=FACE_BOUND('',#465,.T.);
#467=ORIENTED_EDGE('',*,*,#153,.T.);
#468=EDGE_LOOP('',(#467));
#469=FACE_BOUND('',#468,.T.);
#470=ORIENTED_EDGE('',*,*,#181,.T.);
#471=EDGE_LOOP('',(#470));
#472=FACE_BOUND('',#471,.T.);
#473=ORIENTED_EDGE('',*,*,#209,.T.);
#474=EDGE_LOOP('',(#473));
#475=FACE_BOUND('',#474,.T.);
#476=ORIENTED_EDGE('',*,*,#237,.T.);
#477=EDGE_LOOP('',(#476));
#478=FACE_BOUND('',#477,.T.);
#479=ORIENTED_EDGE('',*,*,#265,.T.);
#480=EDGE_LOOP('',(#479));
#481=FACE_BOUND('',#480,.T.);
#482=ORIENTED_EDGE('',*,*,#293,.T.);
#483=EDGE_LOOP('',(#482));
#484=FACE_BOUND('',#483,.T.);
#485=ORIENTED_EDGE('',*,*,#321,.T.);
#486=EDGE_LOOP('',(#485));
#487=FACE_BOUND('',#486,.T.);
#488=ADVANCED_FACE('',(#460,#463,#466,#469,#472,#475,#478,#481,#484,#487),#454,.F.);
#489=CARTESIAN_POINT('',(14.249999999999998,16.0,0.09375));
#490=DIRECTION('',(0.0,0.0,1.0));
#491=DIRECTION('',(1.0,0.0,0.0));
#492=AXIS2_PLACEMENT_3D('',#489,#490,#491);
#493=PLANE('',#492);
#494=ORIENTED_EDGE('',*,*,#339,.F.);
#495=ORIENTED_EDGE('',*,*,#437,.F.);
#496=ORIENTED_EDGE('',*,*,#408,.F.);
#497=ORIENTED_EDGE('',*,*,#377,.F.);
#498=EDGE_LOOP('',(#494,#495,#496,#497));
#499=FACE_OUTER_BOUND('',#498,.T.);
#500=ORIENTED_EDGE('',*,*,#86,.T.);
#501=EDGE_LOOP('',(#500));
#502=FACE_BOUND('',#501,.T.);
#503=ORIENTED_EDGE('',*,*,#114,.T.);
#504=EDGE_LOOP('',(#503));
#505=FACE_BOUND('',#504,.T.);
#506=ORIENTED_EDGE('',*,*,#142,.T.);
#507=EDGE_LOOP('',(#506));
#508=FACE_BOUND('',#507,.T.);
#509=ORIENTED_EDGE('',*,*,#170,.T.);
#510=EDGE_LOOP('',(#509));
#511=FACE_BOUND('',#510,.T.);
#512=ORIENTED_EDGE('',*,*,#198,.T.);
#513=EDGE_LOOP('',(#512));
#514=FACE_BOUND('',#513,.T.);
#515=ORIENTED_EDGE('',*,*,#226,.T.);
#516=EDGE_LOOP('',(#515));
#517=FACE_BOUND('',#516,.T.);
#518=ORIENTED_EDGE('',*,*,#254,.T.);
#519=EDGE_LOOP('',(#518));
#520=FACE_BOUND('',#519,.T.);
#521=ORIENTED_EDGE('',*,*,#282,.T.);
#522=EDGE_LOOP('',(#521));
#523=FACE_BOUND('',#522,.T.);
#524=ORIENTED_EDGE('',*,*,#310,.T.);
#525=EDGE_LOOP('',(#524));
#526=FACE_BOUND('',#525,.T.);
#527=ADVANCED_FACE('',(#499,#502,#505,#508,#511,#514,#517,#520,#523,#526),#493,.T.);
#528=CLOSED_SHELL('',(#101,#129,#157,#185,#213,#241,#269,#297,#325,#365,#396,#427,#449,#488,#527));
#529=MANIFOLD_SOLID_BREP('Solid1',#528);
#530=COLOUR_RGB('',0.639216005802155,0.639216005802155,0.686275005340576);
#531=FILL_AREA_STYLE_COLOUR('',#530);
#532=FILL_AREA_STYLE('',(#531));
#533=SURFACE_STYLE_FILL_AREA(#532);
#534=SURFACE_SIDE_STYLE('',(#533));
#535=SURFACE_STYLE_USAGE(.BOTH.,#534);
#536=PRESENTATION_STYLE_ASSIGNMENT((#535));
#537=STYLED_ITEM('',(#536),#101);
#538=STYLED_ITEM('',(#536),#129);
#539=STYLED_ITEM('',(#536),#157);
#540=STYLED_ITEM('',(#536),#185);
#541=STYLED_ITEM('',(#536),#213);
#542=STYLED_ITEM('',(#536),#241);
#543=STYLED_ITEM('',(#536),#269);
#544=STYLED_ITEM('',(#536),#297);
#545=STYLED_ITEM('',(#536),#325);
#546=STYLED_ITEM('',(#536),#365);
#547=STYLED_ITEM('',(#536),#396);
#548=STYLED_ITEM('',(#536),#427);
#549=STYLED_ITEM('',(#536),#449);
#550=STYLED_ITEM('',(#536),#488);
#551=STYLED_ITEM('',(#536),#527);
#552=MECHANICAL_DESIGN_GEOMETRIC_PRESENTATION_REPRESENTATION('',(#537,#538,#539,#540,#541,#542,#543,#544,#545,#546,#547,#548,#549,#550,#551,#560),#73);
#553=COLOUR_RGB('Metal-Steel',0.639216005802155,0.639216005802155,0.686275005340576);
#554=FILL_AREA_STYLE_COLOUR('Metal-Steel',#553);
#555=FILL_AREA_STYLE('Metal-Steel',(#554));
#556=SURFACE_STYLE_FILL_AREA(#555);
#557=SURFACE_SIDE_STYLE('Metal-Steel',(#556));
#558=SURFACE_STYLE_USAGE(.BOTH.,#557);
#559=PRESENTATION_STYLE_ASSIGNMENT((#558));
#560=STYLED_ITEM('',(#559),#529);
#561=ADVANCED_BREP_SHAPE_REPRESENTATION('ABSR',(#529),#42);
#562=SHAPE_REPRESENTATION_RELATIONSHIP('SRR','None',#561,#47);
ENDSEC;
END-ISO-10303-21;
