ISO-10303-21;
HEADER;
FILE_DESCRIPTION((''),'2;1');
FILE_NAME('NM-9','2014-05-29T',('md30'),
('Koyo Electronics Industries Co., LTD'),
'PRO/ENGINEER BY PARAMETRIC TECHNOLOGY CORPORATION, 2010020',
'PRO/ENGINEER BY PARAMETRIC TECHNOLOGY CORPORATION, 2010020','');
FILE_SCHEMA(('AUTOMOTIVE_DESIGN_CC2 { 1 2 10303 214 -1 1 5 2 }'));
ENDSEC;
DATA;
#2=DIRECTION('',(1.E0,0.E0,0.E0));
#3=VECTOR('',#2,1.5E1);
#4=CARTESIAN_POINT('',(-7.5E0,0.E0,-6.5E0));
#5=LINE('',#4,#3);
#6=DIRECTION('',(0.E0,0.E0,-1.E0));
#7=VECTOR('',#6,2.E0);
#8=CARTESIAN_POINT('',(7.5E0,0.E0,-6.5E0));
#9=LINE('',#8,#7);
#10=DIRECTION('',(-1.E0,0.E0,0.E0));
#11=VECTOR('',#10,1.5E1);
#12=CARTESIAN_POINT('',(7.5E0,0.E0,-8.5E0));
#13=LINE('',#12,#11);
#14=DIRECTION('',(0.E0,0.E0,1.E0));
#15=VECTOR('',#14,2.E0);
#16=CARTESIAN_POINT('',(-7.5E0,0.E0,-8.5E0));
#17=LINE('',#16,#15);
#18=DIRECTION('',(1.E0,0.E0,0.E0));
#19=VECTOR('',#18,1.5E1);
#20=CARTESIAN_POINT('',(-7.5E0,2.6E0,-6.5E0));
#21=LINE('',#20,#19);
#22=CARTESIAN_POINT('',(-7.5E0,2.6E0,-6.5E0));
#23=DIRECTION('',(-1.E0,0.E0,0.E0));
#24=DIRECTION('',(0.E0,1.E0,0.E0));
#25=AXIS2_PLACEMENT_3D('',#22,#23,#24);
#27=DIRECTION('',(0.E0,-1.E0,0.E0));
#28=VECTOR('',#27,2.E0);
#29=CARTESIAN_POINT('',(-7.5E0,4.6E0,7.5E0));
#30=LINE('',#29,#28);
#31=DIRECTION('',(0.E0,0.E0,-1.E0));
#32=VECTOR('',#31,1.4E1);
#33=CARTESIAN_POINT('',(-7.5E0,2.6E0,7.5E0));
#34=LINE('',#33,#32);
#35=DIRECTION('',(0.E0,1.E0,0.E0));
#36=VECTOR('',#35,2.6E0);
#37=CARTESIAN_POINT('',(-7.5E0,0.E0,-6.5E0));
#38=LINE('',#37,#36);
#39=DIRECTION('',(0.E0,1.E0,0.E0));
#40=VECTOR('',#39,2.6E0);
#41=CARTESIAN_POINT('',(-7.5E0,0.E0,-8.5E0));
#42=LINE('',#41,#40);
#43=DIRECTION('',(-1.E0,0.E0,0.E0));
#44=VECTOR('',#43,1.5E1);
#45=CARTESIAN_POINT('',(7.5E0,2.6E0,-8.5E0));
#46=LINE('',#45,#44);
#47=DIRECTION('',(0.E0,1.E0,0.E0));
#48=VECTOR('',#47,2.6E0);
#49=CARTESIAN_POINT('',(7.5E0,0.E0,-8.5E0));
#50=LINE('',#49,#48);
#51=CARTESIAN_POINT('',(7.5E0,2.6E0,-6.5E0));
#52=DIRECTION('',(1.E0,0.E0,0.E0));
#53=DIRECTION('',(0.E0,0.E0,-1.E0));
#54=AXIS2_PLACEMENT_3D('',#51,#52,#53);
#56=DIRECTION('',(0.E0,1.E0,0.E0));
#57=VECTOR('',#56,2.6E0);
#58=CARTESIAN_POINT('',(7.5E0,0.E0,-6.5E0));
#59=LINE('',#58,#57);
#60=DIRECTION('',(0.E0,0.E0,-1.E0));
#61=VECTOR('',#60,1.4E1);
#62=CARTESIAN_POINT('',(7.5E0,2.6E0,7.5E0));
#63=LINE('',#62,#61);
#64=DIRECTION('',(0.E0,-1.E0,0.E0));
#65=VECTOR('',#64,2.E0);
#66=CARTESIAN_POINT('',(7.5E0,4.6E0,7.5E0));
#67=LINE('',#66,#65);
#68=DIRECTION('',(-7.071067811865E-1,0.E0,-7.071067811865E-1));
#69=VECTOR('',#68,2.828427124746E0);
#70=CARTESIAN_POINT('',(-5.5E0,2.6E0,9.5E0));
#71=LINE('',#70,#69);
#72=DIRECTION('',(-7.071067811865E-1,0.E0,7.071067811865E-1));
#73=VECTOR('',#72,2.828427124746E0);
#74=CARTESIAN_POINT('',(7.5E0,2.6E0,7.5E0));
#75=LINE('',#74,#73);
#76=CARTESIAN_POINT('',(0.E0,2.6E0,0.E0));
#77=DIRECTION('',(0.E0,1.E0,0.E0));
#78=DIRECTION('',(0.E0,0.E0,1.E0));
#79=AXIS2_PLACEMENT_3D('',#76,#77,#78);
#81=CARTESIAN_POINT('',(0.E0,2.6E0,0.E0));
#82=DIRECTION('',(0.E0,1.E0,0.E0));
#83=DIRECTION('',(0.E0,0.E0,-1.E0));
#84=AXIS2_PLACEMENT_3D('',#81,#82,#83);
#86=CARTESIAN_POINT('',(0.E0,4.6E0,0.E0));
#87=DIRECTION('',(0.E0,1.E0,0.E0));
#88=DIRECTION('',(0.E0,0.E0,1.E0));
#89=AXIS2_PLACEMENT_3D('',#86,#87,#88);
#91=CARTESIAN_POINT('',(0.E0,4.6E0,0.E0));
#92=DIRECTION('',(0.E0,1.E0,0.E0));
#93=DIRECTION('',(0.E0,0.E0,-1.E0));
#94=AXIS2_PLACEMENT_3D('',#91,#92,#93);
#96=DIRECTION('',(-1.E0,0.E0,0.E0));
#97=VECTOR('',#96,1.5E1);
#98=CARTESIAN_POINT('',(7.5E0,4.6E0,-6.5E0));
#99=LINE('',#98,#97);
#100=DIRECTION('',(0.E0,0.E0,-1.E0));
#101=VECTOR('',#100,1.4E1);
#102=CARTESIAN_POINT('',(7.5E0,4.6E0,7.5E0));
#103=LINE('',#102,#101);
#104=DIRECTION('',(7.071067811865E-1,0.E0,-7.071067811865E-1));
#105=VECTOR('',#104,2.828427124746E0);
#106=CARTESIAN_POINT('',(5.5E0,4.6E0,9.5E0));
#107=LINE('',#106,#105);
#108=DIRECTION('',(1.E0,0.E0,0.E0));
#109=VECTOR('',#108,1.1E1);
#110=CARTESIAN_POINT('',(-5.5E0,4.6E0,9.5E0));
#111=LINE('',#110,#109);
#112=DIRECTION('',(7.071067811865E-1,0.E0,7.071067811865E-1));
#113=VECTOR('',#112,2.828427124746E0);
#114=CARTESIAN_POINT('',(-7.5E0,4.6E0,7.5E0));
#115=LINE('',#114,#113);
#116=DIRECTION('',(0.E0,0.E0,1.E0));
#117=VECTOR('',#116,1.4E1);
#118=CARTESIAN_POINT('',(-7.5E0,4.6E0,-6.5E0));
#119=LINE('',#118,#117);
#120=DIRECTION('',(0.E0,-1.E0,0.E0));
#121=VECTOR('',#120,2.E0);
#122=CARTESIAN_POINT('',(0.E0,4.6E0,2.25E0));
#123=LINE('',#122,#121);
#124=DIRECTION('',(0.E0,-1.E0,0.E0));
#125=VECTOR('',#124,2.E0);
#126=CARTESIAN_POINT('',(0.E0,4.6E0,-2.25E0));
#127=LINE('',#126,#125);
#128=DIRECTION('',(0.E0,-1.E0,0.E0));
#129=VECTOR('',#128,2.E0);
#130=CARTESIAN_POINT('',(-5.5E0,4.6E0,9.5E0));
#131=LINE('',#130,#129);
#132=DIRECTION('',(0.E0,-1.E0,0.E0));
#133=VECTOR('',#132,2.E0);
#134=CARTESIAN_POINT('',(5.5E0,4.6E0,9.5E0));
#135=LINE('',#134,#133);
#136=DIRECTION('',(1.E0,0.E0,0.E0));
#137=VECTOR('',#136,1.1E1);
#138=CARTESIAN_POINT('',(-5.5E0,2.6E0,9.5E0));
#139=LINE('',#138,#137);
#140=CARTESIAN_POINT('',(7.5E0,0.E0,-8.5E0));
#141=CARTESIAN_POINT('',(-7.5E0,0.E0,-8.5E0));
#142=VERTEX_POINT('',#140);
#143=VERTEX_POINT('',#141);
#144=CARTESIAN_POINT('',(-7.5E0,0.E0,-6.5E0));
#145=CARTESIAN_POINT('',(7.5E0,0.E0,-6.5E0));
#146=VERTEX_POINT('',#144);
#147=VERTEX_POINT('',#145);
#148=CARTESIAN_POINT('',(-7.5E0,2.6E0,-6.5E0));
#149=VERTEX_POINT('',#148);
#150=CARTESIAN_POINT('',(7.5E0,2.6E0,-6.5E0));
#151=VERTEX_POINT('',#150);
#152=CARTESIAN_POINT('',(-5.5E0,2.6E0,9.5E0));
#153=CARTESIAN_POINT('',(-7.5E0,2.6E0,7.5E0));
#154=VERTEX_POINT('',#152);
#155=VERTEX_POINT('',#153);
#156=CARTESIAN_POINT('',(-7.5E0,4.6E0,7.5E0));
#157=VERTEX_POINT('',#156);
#158=CARTESIAN_POINT('',(-5.5E0,4.6E0,9.5E0));
#159=VERTEX_POINT('',#158);
#160=CARTESIAN_POINT('',(7.5E0,2.6E0,7.5E0));
#161=CARTESIAN_POINT('',(5.5E0,2.6E0,9.5E0));
#162=VERTEX_POINT('',#160);
#163=VERTEX_POINT('',#161);
#164=CARTESIAN_POINT('',(5.5E0,4.6E0,9.5E0));
#165=VERTEX_POINT('',#164);
#166=CARTESIAN_POINT('',(7.5E0,4.6E0,7.5E0));
#167=VERTEX_POINT('',#166);
#168=CARTESIAN_POINT('',(0.E0,4.6E0,2.25E0));
#169=CARTESIAN_POINT('',(0.E0,4.6E0,-2.25E0));
#170=VERTEX_POINT('',#168);
#171=VERTEX_POINT('',#169);
#172=CARTESIAN_POINT('',(0.E0,2.6E0,2.25E0));
#173=CARTESIAN_POINT('',(0.E0,2.6E0,-2.25E0));
#174=VERTEX_POINT('',#172);
#175=VERTEX_POINT('',#173);
#176=CARTESIAN_POINT('',(-7.5E0,4.6E0,-6.5E0));
#177=CARTESIAN_POINT('',(-7.5E0,2.6E0,-8.5E0));
#178=VERTEX_POINT('',#176);
#179=VERTEX_POINT('',#177);
#180=CARTESIAN_POINT('',(7.5E0,2.6E0,-8.5E0));
#181=VERTEX_POINT('',#180);
#182=CARTESIAN_POINT('',(7.5E0,4.6E0,-6.5E0));
#183=VERTEX_POINT('',#182);
#184=CARTESIAN_POINT('',(0.E0,0.E0,0.E0));
#185=DIRECTION('',(0.E0,1.E0,0.E0));
#186=DIRECTION('',(1.E0,0.E0,0.E0));
#187=AXIS2_PLACEMENT_3D('',#184,#185,#186);
#188=PLANE('',#187);
#190=ORIENTED_EDGE('',*,*,#189,.T.);
#192=ORIENTED_EDGE('',*,*,#191,.T.);
#194=ORIENTED_EDGE('',*,*,#193,.T.);
#196=ORIENTED_EDGE('',*,*,#195,.T.);
#197=EDGE_LOOP('',(#190,#192,#194,#196));
#198=FACE_OUTER_BOUND('',#197,.F.);
#200=CARTESIAN_POINT('',(-7.5E0,2.6E0,-6.5E0));
#201=DIRECTION('',(0.E0,0.E0,-1.E0));
#202=DIRECTION('',(0.E0,-1.E0,0.E0));
#203=AXIS2_PLACEMENT_3D('',#200,#201,#202);
#204=PLANE('',#203);
#205=ORIENTED_EDGE('',*,*,#189,.F.);
#207=ORIENTED_EDGE('',*,*,#206,.T.);
#209=ORIENTED_EDGE('',*,*,#208,.T.);
#211=ORIENTED_EDGE('',*,*,#210,.F.);
#212=EDGE_LOOP('',(#205,#207,#209,#211));
#213=FACE_OUTER_BOUND('',#212,.F.);
#215=CARTESIAN_POINT('',(-7.5E0,0.E0,-8.5E0));
#216=DIRECTION('',(-1.E0,0.E0,0.E0));
#217=DIRECTION('',(0.E0,0.E0,1.E0));
#218=AXIS2_PLACEMENT_3D('',#215,#216,#217);
#219=PLANE('',#218);
#221=ORIENTED_EDGE('',*,*,#220,.F.);
#223=ORIENTED_EDGE('',*,*,#222,.T.);
#225=ORIENTED_EDGE('',*,*,#224,.T.);
#227=ORIENTED_EDGE('',*,*,#226,.T.);
#228=ORIENTED_EDGE('',*,*,#206,.F.);
#229=ORIENTED_EDGE('',*,*,#195,.F.);
#231=ORIENTED_EDGE('',*,*,#230,.T.);
#232=EDGE_LOOP('',(#221,#223,#225,#227,#228,#229,#231));
#233=FACE_OUTER_BOUND('',#232,.F.);
#235=CARTESIAN_POINT('',(7.535302722946E0,2.6E0,-6.5E0));
#236=DIRECTION('',(-1.E0,0.E0,0.E0));
#237=DIRECTION('',(0.E0,1.E0,0.E0));
#238=AXIS2_PLACEMENT_3D('',#235,#236,#237);
#239=CYLINDRICAL_SURFACE('',#238,2.E0);
#240=ORIENTED_EDGE('',*,*,#220,.T.);
#242=ORIENTED_EDGE('',*,*,#241,.F.);
#244=ORIENTED_EDGE('',*,*,#243,.T.);
#246=ORIENTED_EDGE('',*,*,#245,.T.);
#247=EDGE_LOOP('',(#240,#242,#244,#246));
#248=FACE_OUTER_BOUND('',#247,.F.);
#250=CARTESIAN_POINT('',(7.5E0,0.E0,-8.5E0));
#251=DIRECTION('',(0.E0,0.E0,-1.E0));
#252=DIRECTION('',(-1.E0,0.E0,0.E0));
#253=AXIS2_PLACEMENT_3D('',#250,#251,#252);
#254=PLANE('',#253);
#255=ORIENTED_EDGE('',*,*,#241,.T.);
#256=ORIENTED_EDGE('',*,*,#230,.F.);
#257=ORIENTED_EDGE('',*,*,#193,.F.);
#259=ORIENTED_EDGE('',*,*,#258,.T.);
#260=EDGE_LOOP('',(#255,#256,#257,#259));
#261=FACE_OUTER_BOUND('',#260,.F.);
#263=CARTESIAN_POINT('',(7.5E0,0.E0,9.5E0));
#264=DIRECTION('',(1.E0,0.E0,0.E0));
#265=DIRECTION('',(0.E0,0.E0,-1.E0));
#266=AXIS2_PLACEMENT_3D('',#263,#264,#265);
#267=PLANE('',#266);
#268=ORIENTED_EDGE('',*,*,#243,.F.);
#269=ORIENTED_EDGE('',*,*,#258,.F.);
#270=ORIENTED_EDGE('',*,*,#191,.F.);
#271=ORIENTED_EDGE('',*,*,#210,.T.);
#273=ORIENTED_EDGE('',*,*,#272,.F.);
#275=ORIENTED_EDGE('',*,*,#274,.F.);
#277=ORIENTED_EDGE('',*,*,#276,.T.);
#278=EDGE_LOOP('',(#268,#269,#270,#271,#273,#275,#277));
#279=FACE_OUTER_BOUND('',#278,.F.);
#281=CARTESIAN_POINT('',(-7.5E0,2.6E0,9.5E0));
#282=DIRECTION('',(0.E0,1.E0,0.E0));
#283=DIRECTION('',(0.E0,0.E0,-1.E0));
#284=AXIS2_PLACEMENT_3D('',#281,#282,#283);
#285=PLANE('',#284);
#287=ORIENTED_EDGE('',*,*,#286,.F.);
#289=ORIENTED_EDGE('',*,*,#288,.T.);
#291=ORIENTED_EDGE('',*,*,#290,.F.);
#292=ORIENTED_EDGE('',*,*,#272,.T.);
#293=ORIENTED_EDGE('',*,*,#208,.F.);
#294=ORIENTED_EDGE('',*,*,#226,.F.);
#295=EDGE_LOOP('',(#287,#289,#291,#292,#293,#294));
#296=FACE_OUTER_BOUND('',#295,.F.);
#298=ORIENTED_EDGE('',*,*,#297,.F.);
#300=ORIENTED_EDGE('',*,*,#299,.F.);
#301=EDGE_LOOP('',(#298,#300));
#302=FACE_BOUND('',#301,.F.);
#304=CARTESIAN_POINT('',(-6.5E0,3.6E0,8.5E0));
#305=DIRECTION('',(-7.071067811865E-1,0.E0,7.071067811865E-1));
#306=DIRECTION('',(0.E0,-1.E0,0.E0));
#307=AXIS2_PLACEMENT_3D('',#304,#305,#306);
#308=PLANE('',#307);
#309=ORIENTED_EDGE('',*,*,#286,.T.);
#310=ORIENTED_EDGE('',*,*,#224,.F.);
#312=ORIENTED_EDGE('',*,*,#311,.T.);
#314=ORIENTED_EDGE('',*,*,#313,.T.);
#315=EDGE_LOOP('',(#309,#310,#312,#314));
#316=FACE_OUTER_BOUND('',#315,.F.);
#318=CARTESIAN_POINT('',(0.E0,4.6E0,0.E0));
#319=DIRECTION('',(0.E0,1.E0,0.E0));
#320=DIRECTION('',(1.E0,0.E0,0.E0));
#321=AXIS2_PLACEMENT_3D('',#318,#319,#320);
#322=PLANE('',#321);
#323=ORIENTED_EDGE('',*,*,#245,.F.);
#324=ORIENTED_EDGE('',*,*,#276,.F.);
#326=ORIENTED_EDGE('',*,*,#325,.F.);
#328=ORIENTED_EDGE('',*,*,#327,.F.);
#329=ORIENTED_EDGE('',*,*,#311,.F.);
#330=ORIENTED_EDGE('',*,*,#222,.F.);
#331=EDGE_LOOP('',(#323,#324,#326,#328,#329,#330));
#332=FACE_OUTER_BOUND('',#331,.F.);
#334=ORIENTED_EDGE('',*,*,#333,.T.);
#336=ORIENTED_EDGE('',*,*,#335,.T.);
#337=EDGE_LOOP('',(#334,#336));
#338=FACE_BOUND('',#337,.F.);
#340=CARTESIAN_POINT('',(0.E0,4.6E0,0.E0));
#341=DIRECTION('',(0.E0,1.E0,0.E0));
#342=DIRECTION('',(0.E0,0.E0,1.E0));
#343=AXIS2_PLACEMENT_3D('',#340,#341,#342);
#344=CYLINDRICAL_SURFACE('',#343,2.25E0);
#345=ORIENTED_EDGE('',*,*,#333,.F.);
#347=ORIENTED_EDGE('',*,*,#346,.T.);
#348=ORIENTED_EDGE('',*,*,#297,.T.);
#350=ORIENTED_EDGE('',*,*,#349,.F.);
#351=EDGE_LOOP('',(#345,#347,#348,#350));
#352=FACE_OUTER_BOUND('',#351,.F.);
#354=CARTESIAN_POINT('',(0.E0,4.6E0,0.E0));
#355=DIRECTION('',(0.E0,1.E0,0.E0));
#356=DIRECTION('',(0.E0,0.E0,1.E0));
#357=AXIS2_PLACEMENT_3D('',#354,#355,#356);
#358=CYLINDRICAL_SURFACE('',#357,2.25E0);
#359=ORIENTED_EDGE('',*,*,#335,.F.);
#360=ORIENTED_EDGE('',*,*,#349,.T.);
#361=ORIENTED_EDGE('',*,*,#299,.T.);
#362=ORIENTED_EDGE('',*,*,#346,.F.);
#363=EDGE_LOOP('',(#359,#360,#361,#362));
#364=FACE_OUTER_BOUND('',#363,.F.);
#366=CARTESIAN_POINT('',(6.5E0,3.6E0,8.5E0));
#367=DIRECTION('',(7.071067811865E-1,0.E0,7.071067811865E-1));
#368=DIRECTION('',(0.E0,-1.E0,0.E0));
#369=AXIS2_PLACEMENT_3D('',#366,#367,#368);
#370=PLANE('',#369);
#371=ORIENTED_EDGE('',*,*,#290,.T.);
#373=ORIENTED_EDGE('',*,*,#372,.F.);
#374=ORIENTED_EDGE('',*,*,#325,.T.);
#375=ORIENTED_EDGE('',*,*,#274,.T.);
#376=EDGE_LOOP('',(#371,#373,#374,#375));
#377=FACE_OUTER_BOUND('',#376,.F.);
#379=CARTESIAN_POINT('',(-7.5E0,0.E0,9.5E0));
#380=DIRECTION('',(0.E0,0.E0,1.E0));
#381=DIRECTION('',(1.E0,0.E0,0.E0));
#382=AXIS2_PLACEMENT_3D('',#379,#380,#381);
#383=PLANE('',#382);
#384=ORIENTED_EDGE('',*,*,#313,.F.);
#385=ORIENTED_EDGE('',*,*,#327,.T.);
#386=ORIENTED_EDGE('',*,*,#372,.T.);
#387=ORIENTED_EDGE('',*,*,#288,.F.);
#388=EDGE_LOOP('',(#384,#385,#386,#387));
#389=FACE_OUTER_BOUND('',#388,.F.);
#391=CLOSED_SHELL('',(#199,#214,#234,#249,#262,#280,#303,#317,#339,#353,#365,
#378,#390));
#392=MANIFOLD_SOLID_BREP('',#391);
#394=DIMENSIONAL_EXPONENTS(0.E0,0.E0,0.E0,0.E0,0.E0,0.E0,0.E0);
#396=PLANE_ANGLE_MEASURE_WITH_UNIT(PLANE_ANGLE_MEASURE(1.745329251994E-2),#395);
#397=(CONVERSION_BASED_UNIT('DEGREE',#396)NAMED_UNIT(#394)PLANE_ANGLE_UNIT());
#399=UNCERTAINTY_MEASURE_WITH_UNIT(LENGTH_MEASURE(2.387706824785E-3),#393,
'distance_accuracy_value',
'Maximum model space distance between geometric entities at asserted connectivities');
#402=APPLICATION_CONTEXT('automotive_design');
#403=APPLICATION_PROTOCOL_DEFINITION('draft international standard',
'automotive_design',1998,#402);
#404=PRODUCT_DEFINITION_CONTEXT('part definition',#402,'design');
#405=PRODUCT_CONTEXT('',#402,'mechanical');
#406=PRODUCT('NM-9','NM-9','NOT SPECIFIED',(#405));
#407=PRODUCT_DEFINITION_FORMATION_WITH_SPECIFIED_SOURCE('1','LAST_VERSION',#406,
.MADE.);
#411=PRODUCT_TYPE('part','',(#406));
#1=COLOUR_RGB('',8.784E-1,9.49E-1,1.E0);
#26=CIRCLE('',#25,2.E0);
#55=CIRCLE('',#54,2.E0);
#80=CIRCLE('',#79,2.25E0);
#85=CIRCLE('',#84,2.25E0);
#90=CIRCLE('',#89,2.25E0);
#95=CIRCLE('',#94,2.25E0);
#189=EDGE_CURVE('',#146,#147,#5,.T.);
#191=EDGE_CURVE('',#147,#142,#9,.T.);
#193=EDGE_CURVE('',#142,#143,#13,.T.);
#195=EDGE_CURVE('',#143,#146,#17,.T.);
#199=ADVANCED_FACE('',(#198),#188,.F.);
#206=EDGE_CURVE('',#146,#149,#38,.T.);
#208=EDGE_CURVE('',#149,#151,#21,.T.);
#210=EDGE_CURVE('',#147,#151,#59,.T.);
#214=ADVANCED_FACE('',(#213),#204,.F.);
#220=EDGE_CURVE('',#178,#179,#26,.T.);
#222=EDGE_CURVE('',#178,#157,#119,.T.);
#224=EDGE_CURVE('',#157,#155,#30,.T.);
#226=EDGE_CURVE('',#155,#149,#34,.T.);
#230=EDGE_CURVE('',#143,#179,#42,.T.);
#234=ADVANCED_FACE('',(#233),#219,.T.);
#241=EDGE_CURVE('',#181,#179,#46,.T.);
#243=EDGE_CURVE('',#181,#183,#55,.T.);
#245=EDGE_CURVE('',#183,#178,#99,.T.);
#249=ADVANCED_FACE('',(#248),#239,.T.);
#258=EDGE_CURVE('',#142,#181,#50,.T.);
#262=ADVANCED_FACE('',(#261),#254,.T.);
#272=EDGE_CURVE('',#162,#151,#63,.T.);
#274=EDGE_CURVE('',#167,#162,#67,.T.);
#276=EDGE_CURVE('',#167,#183,#103,.T.);
#280=ADVANCED_FACE('',(#279),#267,.T.);
#286=EDGE_CURVE('',#154,#155,#71,.T.);
#288=EDGE_CURVE('',#154,#163,#139,.T.);
#290=EDGE_CURVE('',#162,#163,#75,.T.);
#297=EDGE_CURVE('',#174,#175,#80,.T.);
#299=EDGE_CURVE('',#175,#174,#85,.T.);
#303=ADVANCED_FACE('',(#296,#302),#285,.F.);
#311=EDGE_CURVE('',#157,#159,#115,.T.);
#313=EDGE_CURVE('',#159,#154,#131,.T.);
#317=ADVANCED_FACE('',(#316),#308,.T.);
#325=EDGE_CURVE('',#165,#167,#107,.T.);
#327=EDGE_CURVE('',#159,#165,#111,.T.);
#333=EDGE_CURVE('',#170,#171,#90,.T.);
#335=EDGE_CURVE('',#171,#170,#95,.T.);
#339=ADVANCED_FACE('',(#332,#338),#322,.T.);
#346=EDGE_CURVE('',#170,#174,#123,.T.);
#349=EDGE_CURVE('',#171,#175,#127,.T.);
#353=ADVANCED_FACE('',(#352),#344,.F.);
#365=ADVANCED_FACE('',(#364),#358,.F.);
#372=EDGE_CURVE('',#165,#163,#135,.T.);
#378=ADVANCED_FACE('',(#377),#370,.T.);
#390=ADVANCED_FACE('',(#389),#383,.T.);
#393=(LENGTH_UNIT()NAMED_UNIT(*)SI_UNIT(.MILLI.,.METRE.));
#395=(NAMED_UNIT(*)PLANE_ANGLE_UNIT()SI_UNIT($,.RADIAN.));
#398=(NAMED_UNIT(*)SI_UNIT($,.STERADIAN.)SOLID_ANGLE_UNIT());
#400=(GEOMETRIC_REPRESENTATION_CONTEXT(3)GLOBAL_UNCERTAINTY_ASSIGNED_CONTEXT((
#399))GLOBAL_UNIT_ASSIGNED_CONTEXT((#393,#397,#398))REPRESENTATION_CONTEXT
('ID1','3'));
#401=ADVANCED_BREP_SHAPE_REPRESENTATION('',(#392),#400);
#408=PRODUCT_DEFINITION('part definition','',#407,#404);
#409=PRODUCT_DEFINITION_SHAPE('','SHAPE FOR NM-9.',#408);
#410=SHAPE_DEFINITION_REPRESENTATION(#409,#401);
ENDSEC;
END-ISO-10303-21;
