ISO-10303-21;
HEADER;
/****************************************************************
 * Generated by software with PDE/Lib inside                    *
 * PDElib Version v51a, created Tue 12/06/2005                  *
 * International Technegroup Inc. (www.iti-oh.com)              *
 ****************************************************************/
FILE_DESCRIPTION((''),'2;1');
FILE_NAME('D:\\PROJECT 2008\\CUSTOMER PROJECT-2008\\STAHLIN USA\\2D-3D PROJECTS\\DIAMOND SHIELD SERIES 12.09.08\\RM\\VARIABLE HEIGHT SWING PANEL\\DS SERIES - VERIABLE HEIGHT SWING PANEL\\STEP\\P1412ASAL.stp','2008-09-12T16:00:53',('design2''s'),(''),'Autodesk Inventor 11','Autodesk Inventor 11','');
FILE_SCHEMA(('AUTOMOTIVE_DESIGN { 1 0 10303 214 1 1 1 1 }'));
ENDSEC;
DATA;
#5=APPLICATION_CONTEXT('automotive design');
#6=APPLICATION_PROTOCOL_DEFINITION('Draft International Standard','automotive_design',1998,#5);
#7=PRODUCT_CONTEXT('None',#5,'mechanical');
#8=PRODUCT('P1412ASAL','P1412ASAL','None',(#7));
#9=PRODUCT_RELATED_PRODUCT_CATEGORY('part','description',(#8));
#10=PRODUCT_DEFINITION_FORMATION('None','None',#8);
#11=PRODUCT_DEFINITION_CONTEXT('part definition',#5,'design');
#12=PRODUCT_DEFINITION('None','None',#10,#11);
#18=(NAMED_UNIT(*)PLANE_ANGLE_UNIT()SI_UNIT($,.RADIAN.));
#19=DIMENSIONAL_EXPONENTS(0.0,0.0,0.0,0.0,0.0,0.0,0.0);
#20=PLANE_ANGLE_MEASURE_WITH_UNIT(PLANE_ANGLE_MEASURE(0.017453292500000),#18);
#24=(CONVERSION_BASED_UNIT('DEGREE',#20)NAMED_UNIT(#19)PLANE_ANGLE_UNIT());
#28=(NAMED_UNIT(*)SI_UNIT($,.STERADIAN.)SOLID_ANGLE_UNIT());
#32=(LENGTH_UNIT()NAMED_UNIT(*)SI_UNIT(.CENTI.,.METRE.));
#33=DIMENSIONAL_EXPONENTS(1.0,0.0,0.0,0.0,0.0,0.0,0.0);
#34=LENGTH_MEASURE_WITH_UNIT(LENGTH_MEASURE(2.540000000000000),#32);
#38=(CONVERSION_BASED_UNIT('INCH',#34)LENGTH_UNIT()NAMED_UNIT(#33));
#40=UNCERTAINTY_MEASURE_WITH_UNIT(LENGTH_MEASURE(0.000393700787402),#38,'DISTANCE_ACCURACY_VALUE','');
#42=(GEOMETRIC_REPRESENTATION_CONTEXT(3)GLOBAL_UNCERTAINTY_ASSIGNED_CONTEXT((#40))GLOBAL_UNIT_ASSIGNED_CONTEXT((#24,#28,#38))REPRESENTATION_CONTEXT('None','None'));
#43=AXIS2_PLACEMENT_3D('',#44,#45,#46);
#44=CARTESIAN_POINT('',(0.0,0.0,0.0));
#45=DIRECTION('',(0.0,0.0,1.0));
#46=DIRECTION('',(1.0,0.0,0.0));
#47=SHAPE_REPRESENTATION('',(#43),#42);
#48=PRODUCT_DEFINITION_SHAPE('','',#12);
#49=SHAPE_DEFINITION_REPRESENTATION(#48,#47);
#50=CARTESIAN_POINT('',(5.688950000000001,5.509500000000000,0.0));
#51=DIRECTION('',(0.0,0.0,1.0));
#52=DIRECTION('',(-1.0,0.0,0.0));
#53=AXIS2_PLACEMENT_3D('',#50,#51,#52);
#54=CYLINDRICAL_SURFACE('',#53,0.125000000000001);
#55=CARTESIAN_POINT('',(5.813950000000002,5.509500000000000,0.080000000000000));
#56=VERTEX_POINT('',#55);
#57=CARTESIAN_POINT('',(5.688950000000001,5.509500000000000,0.080000000000000));
#58=DIRECTION('',(0.0,0.0,-1.0));
#59=DIRECTION('',(-1.0,0.0,0.0));
#60=AXIS2_PLACEMENT_3D('',#57,#58,#59);
#61=CIRCLE('',#60,0.125000000000001);
#62=EDGE_CURVE('',#56,#56,#61,.T.);
#63=ORIENTED_EDGE('',*,*,#62,.F.);
#64=EDGE_LOOP('',(#63));
#65=FACE_OUTER_BOUND('',#64,.T.);
#66=CARTESIAN_POINT('',(5.813950000000002,5.509500000000000,0.0));
#67=VERTEX_POINT('',#66);
#68=CARTESIAN_POINT('',(5.688950000000001,5.509500000000000,0.0));
#69=DIRECTION('',(0.0,0.0,1.0));
#70=DIRECTION('',(-1.0,0.0,0.0));
#71=AXIS2_PLACEMENT_3D('',#68,#69,#70);
#72=CIRCLE('',#71,0.125000000000001);
#73=EDGE_CURVE('',#67,#67,#72,.T.);
#74=ORIENTED_EDGE('',*,*,#73,.F.);
#75=EDGE_LOOP('',(#74));
#76=FACE_BOUND('',#75,.T.);
#77=ADVANCED_FACE('',(#65,#76),#54,.F.);
#78=CARTESIAN_POINT('',(5.688950000000001,-5.509500000000000,0.0));
#79=DIRECTION('',(0.0,0.0,1.0));
#80=DIRECTION('',(-1.0,0.0,0.0));
#81=AXIS2_PLACEMENT_3D('',#78,#79,#80);
#82=CYLINDRICAL_SURFACE('',#81,0.125000000000001);
#83=CARTESIAN_POINT('',(5.813950000000002,-5.509500000000000,0.080000000000000));
#84=VERTEX_POINT('',#83);
#85=CARTESIAN_POINT('',(5.688950000000001,-5.509500000000000,0.080000000000000));
#86=DIRECTION('',(0.0,0.0,-1.0));
#87=DIRECTION('',(-1.0,0.0,0.0));
#88=AXIS2_PLACEMENT_3D('',#85,#86,#87);
#89=CIRCLE('',#88,0.125000000000001);
#90=EDGE_CURVE('',#84,#84,#89,.T.);
#91=ORIENTED_EDGE('',*,*,#90,.F.);
#92=EDGE_LOOP('',(#91));
#93=FACE_OUTER_BOUND('',#92,.T.);
#94=CARTESIAN_POINT('',(5.813950000000002,-5.509500000000000,0.0));
#95=VERTEX_POINT('',#94);
#96=CARTESIAN_POINT('',(5.688950000000001,-5.509500000000000,0.0));
#97=DIRECTION('',(0.0,0.0,1.0));
#98=DIRECTION('',(-1.0,0.0,0.0));
#99=AXIS2_PLACEMENT_3D('',#96,#97,#98);
#100=CIRCLE('',#99,0.125000000000001);
#101=EDGE_CURVE('',#95,#95,#100,.T.);
#102=ORIENTED_EDGE('',*,*,#101,.F.);
#103=EDGE_LOOP('',(#102));
#104=FACE_BOUND('',#103,.T.);
#105=ADVANCED_FACE('',(#93,#104),#82,.F.);
#106=CARTESIAN_POINT('',(-5.371250000000000,5.237799999999999,0.0));
#107=DIRECTION('',(0.0,0.0,1.0));
#108=DIRECTION('',(-1.0,0.0,0.0));
#109=AXIS2_PLACEMENT_3D('',#106,#107,#108);
#110=CYLINDRICAL_SURFACE('',#109,0.070000000000000);
#111=CARTESIAN_POINT('',(-5.301250000000001,5.237799999999999,0.080000000000000));
#112=VERTEX_POINT('',#111);
#113=CARTESIAN_POINT('',(-5.371250000000000,5.237799999999999,0.080000000000000));
#114=DIRECTION('',(0.0,0.0,-1.0));
#115=DIRECTION('',(-1.0,0.0,0.0));
#116=AXIS2_PLACEMENT_3D('',#113,#114,#115);
#117=CIRCLE('',#116,0.070000000000000);
#118=EDGE_CURVE('',#112,#112,#117,.T.);
#119=ORIENTED_EDGE('',*,*,#118,.F.);
#120=EDGE_LOOP('',(#119));
#121=FACE_OUTER_BOUND('',#120,.T.);
#122=CARTESIAN_POINT('',(-5.301250000000001,5.237799999999999,0.0));
#123=VERTEX_POINT('',#122);
#124=CARTESIAN_POINT('',(-5.371250000000000,5.237799999999999,0.0));
#125=DIRECTION('',(0.0,0.0,1.0));
#126=DIRECTION('',(-1.0,0.0,0.0));
#127=AXIS2_PLACEMENT_3D('',#124,#125,#126);
#128=CIRCLE('',#127,0.070000000000000);
#129=EDGE_CURVE('',#123,#123,#128,.T.);
#130=ORIENTED_EDGE('',*,*,#129,.F.);
#131=EDGE_LOOP('',(#130));
#132=FACE_BOUND('',#131,.T.);
#133=ADVANCED_FACE('',(#121,#132),#110,.F.);
#134=CARTESIAN_POINT('',(-5.371250000000000,3.987800000000000,0.0));
#135=DIRECTION('',(0.0,0.0,1.0));
#136=DIRECTION('',(-1.0,0.0,0.0));
#137=AXIS2_PLACEMENT_3D('',#134,#135,#136);
#138=CYLINDRICAL_SURFACE('',#137,0.070000000000000);
#139=CARTESIAN_POINT('',(-5.301250000000000,3.987800000000000,0.080000000000000));
#140=VERTEX_POINT('',#139);
#141=CARTESIAN_POINT('',(-5.371250000000000,3.987800000000000,0.080000000000000));
#142=DIRECTION('',(0.0,0.0,-1.0));
#143=DIRECTION('',(-1.0,0.0,0.0));
#144=AXIS2_PLACEMENT_3D('',#141,#142,#143);
#145=CIRCLE('',#144,0.070000000000000);
#146=EDGE_CURVE('',#140,#140,#145,.T.);
#147=ORIENTED_EDGE('',*,*,#146,.F.);
#148=EDGE_LOOP('',(#147));
#149=FACE_OUTER_BOUND('',#148,.T.);
#150=CARTESIAN_POINT('',(-5.301250000000000,3.987800000000000,0.0));
#151=VERTEX_POINT('',#150);
#152=CARTESIAN_POINT('',(-5.371250000000000,3.987800000000000,0.0));
#153=DIRECTION('',(0.0,0.0,1.0));
#154=DIRECTION('',(-1.0,0.0,0.0));
#155=AXIS2_PLACEMENT_3D('',#152,#153,#154);
#156=CIRCLE('',#155,0.070000000000000);
#157=EDGE_CURVE('',#151,#151,#156,.T.);
#158=ORIENTED_EDGE('',*,*,#157,.F.);
#159=EDGE_LOOP('',(#158));
#160=FACE_BOUND('',#159,.T.);
#161=ADVANCED_FACE('',(#149,#160),#138,.F.);
#162=CARTESIAN_POINT('',(-5.371250000000000,-3.987800000000000,0.0));
#163=DIRECTION('',(0.0,0.0,1.0));
#164=DIRECTION('',(-1.0,0.0,0.0));
#165=AXIS2_PLACEMENT_3D('',#162,#163,#164);
#166=CYLINDRICAL_SURFACE('',#165,0.070000000000000);
#167=CARTESIAN_POINT('',(-5.301250000000000,-3.987800000000000,0.080000000000000));
#168=VERTEX_POINT('',#167);
#169=CARTESIAN_POINT('',(-5.371250000000000,-3.987800000000000,0.080000000000000));
#170=DIRECTION('',(0.0,0.0,-1.0));
#171=DIRECTION('',(-1.0,0.0,0.0));
#172=AXIS2_PLACEMENT_3D('',#169,#170,#171);
#173=CIRCLE('',#172,0.070000000000000);
#174=EDGE_CURVE('',#168,#168,#173,.T.);
#175=ORIENTED_EDGE('',*,*,#174,.F.);
#176=EDGE_LOOP('',(#175));
#177=FACE_OUTER_BOUND('',#176,.T.);
#178=CARTESIAN_POINT('',(-5.301250000000000,-3.987800000000000,0.0));
#179=VERTEX_POINT('',#178);
#180=CARTESIAN_POINT('',(-5.371250000000000,-3.987800000000000,0.0));
#181=DIRECTION('',(0.0,0.0,1.0));
#182=DIRECTION('',(-1.0,0.0,0.0));
#183=AXIS2_PLACEMENT_3D('',#180,#181,#182);
#184=CIRCLE('',#183,0.070000000000000);
#185=EDGE_CURVE('',#179,#179,#184,.T.);
#186=ORIENTED_EDGE('',*,*,#185,.F.);
#187=EDGE_LOOP('',(#186));
#188=FACE_BOUND('',#187,.T.);
#189=ADVANCED_FACE('',(#177,#188),#166,.F.);
#190=CARTESIAN_POINT('',(-5.371250000000000,-5.237799999999999,0.0));
#191=DIRECTION('',(0.0,0.0,1.0));
#192=DIRECTION('',(-1.0,0.0,0.0));
#193=AXIS2_PLACEMENT_3D('',#190,#191,#192);
#194=CYLINDRICAL_SURFACE('',#193,0.070000000000000);
#195=CARTESIAN_POINT('',(-5.301250000000001,-5.237799999999999,0.080000000000000));
#196=VERTEX_POINT('',#195);
#197=CARTESIAN_POINT('',(-5.371250000000000,-5.237799999999999,0.080000000000000));
#198=DIRECTION('',(0.0,0.0,-1.0));
#199=DIRECTION('',(-1.0,0.0,0.0));
#200=AXIS2_PLACEMENT_3D('',#197,#198,#199);
#201=CIRCLE('',#200,0.070000000000000);
#202=EDGE_CURVE('',#196,#196,#201,.T.);
#203=ORIENTED_EDGE('',*,*,#202,.F.);
#204=EDGE_LOOP('',(#203));
#205=FACE_OUTER_BOUND('',#204,.T.);
#206=CARTESIAN_POINT('',(-5.301250000000001,-5.237799999999999,0.0));
#207=VERTEX_POINT('',#206);
#208=CARTESIAN_POINT('',(-5.371250000000000,-5.237799999999999,0.0));
#209=DIRECTION('',(0.0,0.0,1.0));
#210=DIRECTION('',(-1.0,0.0,0.0));
#211=AXIS2_PLACEMENT_3D('',#208,#209,#210);
#212=CIRCLE('',#211,0.070000000000000);
#213=EDGE_CURVE('',#207,#207,#212,.T.);
#214=ORIENTED_EDGE('',*,*,#213,.F.);
#215=EDGE_LOOP('',(#214));
#216=FACE_BOUND('',#215,.T.);
#217=ADVANCED_FACE('',(#205,#216),#194,.F.);
#218=CARTESIAN_POINT('',(6.281250000000000,-6.187500000000001,0.0));
#219=DIRECTION('',(0.0,-1.0,0.0));
#220=DIRECTION('',(0.0,0.0,-1.0));
#221=AXIS2_PLACEMENT_3D('',#218,#219,#220);
#222=PLANE('',#221);
#223=CARTESIAN_POINT('',(6.281250000000000,-6.187500000000001,0.080000000000000));
#224=VERTEX_POINT('',#223);
#225=CARTESIAN_POINT('',(-6.281250000000000,-6.187500000000001,0.080000000000000));
#226=VERTEX_POINT('',#225);
#227=CARTESIAN_POINT('',(6.281250000000000,-6.187500000000001,0.080000000000000));
#228=DIRECTION('',(-1.0,0.0,0.0));
#229=VECTOR('',#228,12.562500000000000);
#230=LINE('',#227,#229);
#231=EDGE_CURVE('',#224,#226,#230,.T.);
#232=ORIENTED_EDGE('',*,*,#231,.T.);
#233=CARTESIAN_POINT('',(-6.281250000000000,-6.187500000000001,0.0));
#234=VERTEX_POINT('',#233);
#235=CARTESIAN_POINT('',(-6.281250000000000,-6.187500000000001,0.0));
#236=DIRECTION('',(0.0,0.0,1.0));
#237=VECTOR('',#236,0.080000000000000);
#238=LINE('',#235,#237);
#239=EDGE_CURVE('',#234,#226,#238,.T.);
#240=ORIENTED_EDGE('',*,*,#239,.F.);
#241=CARTESIAN_POINT('',(6.281250000000000,-6.187500000000001,0.0));
#242=VERTEX_POINT('',#241);
#243=CARTESIAN_POINT('',(6.281250000000000,-6.187500000000001,0.0));
#244=DIRECTION('',(-1.0,0.0,0.0));
#245=VECTOR('',#244,12.562500000000000);
#246=LINE('',#243,#245);
#247=EDGE_CURVE('',#242,#234,#246,.T.);
#248=ORIENTED_EDGE('',*,*,#247,.F.);
#249=CARTESIAN_POINT('',(6.281250000000000,-6.187500000000001,0.0));
#250=DIRECTION('',(0.0,0.0,1.0));
#251=VECTOR('',#250,0.080000000000000);
#252=LINE('',#249,#251);
#253=EDGE_CURVE('',#242,#224,#252,.T.);
#254=ORIENTED_EDGE('',*,*,#253,.T.);
#255=EDGE_LOOP('',(#232,#240,#248,#254));
#256=FACE_OUTER_BOUND('',#255,.T.);
#257=ADVANCED_FACE('',(#256),#222,.T.);
#258=CARTESIAN_POINT('',(-6.281250000000001,0.0,0.0));
#259=DIRECTION('',(-1.0,0.0,0.0));
#260=DIRECTION('',(0.0,0.0,1.0));
#261=AXIS2_PLACEMENT_3D('',#258,#259,#260);
#262=PLANE('',#261);
#263=CARTESIAN_POINT('',(-6.281250000000000,6.187500000000001,0.080000000000000));
#264=VERTEX_POINT('',#263);
#265=CARTESIAN_POINT('',(-6.281250000000000,-6.187500000000001,0.080000000000000));
#266=DIRECTION('',(0.0,1.0,0.0));
#267=VECTOR('',#266,12.375000000000002);
#268=LINE('',#265,#267);
#269=EDGE_CURVE('',#226,#264,#268,.T.);
#270=ORIENTED_EDGE('',*,*,#269,.T.);
#271=CARTESIAN_POINT('',(-6.281250000000000,6.187500000000001,0.0));
#272=VERTEX_POINT('',#271);
#273=CARTESIAN_POINT('',(-6.281250000000000,6.187500000000001,0.0));
#274=DIRECTION('',(0.0,0.0,1.0));
#275=VECTOR('',#274,0.080000000000000);
#276=LINE('',#273,#275);
#277=EDGE_CURVE('',#272,#264,#276,.T.);
#278=ORIENTED_EDGE('',*,*,#277,.F.);
#279=CARTESIAN_POINT('',(-6.281250000000000,-6.187500000000001,0.0));
#280=DIRECTION('',(0.0,1.0,0.0));
#281=VECTOR('',#280,12.375000000000002);
#282=LINE('',#279,#281);
#283=EDGE_CURVE('',#234,#272,#282,.T.);
#284=ORIENTED_EDGE('',*,*,#283,.F.);
#285=ORIENTED_EDGE('',*,*,#239,.T.);
#286=EDGE_LOOP('',(#270,#278,#284,#285));
#287=FACE_OUTER_BOUND('',#286,.T.);
#288=ADVANCED_FACE('',(#287),#262,.T.);
#289=CARTESIAN_POINT('',(-6.281250000000000,6.187500000000001,0.0));
#290=DIRECTION('',(0.0,1.0,0.0));
#291=DIRECTION('',(0.0,0.0,1.0));
#292=AXIS2_PLACEMENT_3D('',#289,#290,#291);
#293=PLANE('',#292);
#294=CARTESIAN_POINT('',(6.281250000000000,6.187500000000001,0.080000000000000));
#295=VERTEX_POINT('',#294);
#296=CARTESIAN_POINT('',(-6.281250000000000,6.187500000000001,0.080000000000000));
#297=DIRECTION('',(1.0,0.0,0.0));
#298=VECTOR('',#297,12.562500000000000);
#299=LINE('',#296,#298);
#300=EDGE_CURVE('',#264,#295,#299,.T.);
#301=ORIENTED_EDGE('',*,*,#300,.T.);
#302=CARTESIAN_POINT('',(6.281250000000000,6.187500000000001,0.0));
#303=VERTEX_POINT('',#302);
#304=CARTESIAN_POINT('',(6.281250000000000,6.187500000000001,0.0));
#305=DIRECTION('',(0.0,0.0,1.0));
#306=VECTOR('',#305,0.080000000000000);
#307=LINE('',#304,#306);
#308=EDGE_CURVE('',#303,#295,#307,.T.);
#309=ORIENTED_EDGE('',*,*,#308,.F.);
#310=CARTESIAN_POINT('',(-6.281250000000000,6.187500000000001,0.0));
#311=DIRECTION('',(1.0,0.0,0.0));
#312=VECTOR('',#311,12.562500000000000);
#313=LINE('',#310,#312);
#314=EDGE_CURVE('',#272,#303,#313,.T.);
#315=ORIENTED_EDGE('',*,*,#314,.F.);
#316=ORIENTED_EDGE('',*,*,#277,.T.);
#317=EDGE_LOOP('',(#301,#309,#315,#316));
#318=FACE_OUTER_BOUND('',#317,.T.);
#319=ADVANCED_FACE('',(#318),#293,.T.);
#320=CARTESIAN_POINT('',(6.281250000000000,6.187500000000001,0.0));
#321=DIRECTION('',(1.0,0.0,0.0));
#322=DIRECTION('',(0.0,0.0,-1.0));
#323=AXIS2_PLACEMENT_3D('',#320,#321,#322);
#324=PLANE('',#323);
#325=CARTESIAN_POINT('',(6.281250000000000,6.187500000000001,0.080000000000000));
#326=DIRECTION('',(0.0,-1.0,0.0));
#327=VECTOR('',#326,12.375000000000002);
#328=LINE('',#325,#327);
#329=EDGE_CURVE('',#295,#224,#328,.T.);
#330=ORIENTED_EDGE('',*,*,#329,.T.);
#331=ORIENTED_EDGE('',*,*,#253,.F.);
#332=CARTESIAN_POINT('',(6.281250000000000,6.187500000000001,0.0));
#333=DIRECTION('',(0.0,-1.0,0.0));
#334=VECTOR('',#333,12.375000000000002);
#335=LINE('',#332,#334);
#336=EDGE_CURVE('',#303,#242,#335,.T.);
#337=ORIENTED_EDGE('',*,*,#336,.F.);
#338=ORIENTED_EDGE('',*,*,#308,.T.);
#339=EDGE_LOOP('',(#330,#331,#337,#338));
#340=FACE_OUTER_BOUND('',#339,.T.);
#341=ADVANCED_FACE('',(#340),#324,.T.);
#342=CARTESIAN_POINT('',(0.0,0.0,0.080000000000000));
#343=DIRECTION('',(0.0,0.0,1.0));
#344=DIRECTION('',(1.0,0.0,0.0));
#345=AXIS2_PLACEMENT_3D('',#342,#343,#344);
#346=PLANE('',#345);
#347=ORIENTED_EDGE('',*,*,#231,.F.);
#348=ORIENTED_EDGE('',*,*,#329,.F.);
#349=ORIENTED_EDGE('',*,*,#300,.F.);
#350=ORIENTED_EDGE('',*,*,#269,.F.);
#351=EDGE_LOOP('',(#347,#348,#349,#350));
#352=FACE_OUTER_BOUND('',#351,.T.);
#353=ORIENTED_EDGE('',*,*,#62,.T.);
#354=EDGE_LOOP('',(#353));
#355=FACE_BOUND('',#354,.T.);
#356=ORIENTED_EDGE('',*,*,#90,.T.);
#357=EDGE_LOOP('',(#356));
#358=FACE_BOUND('',#357,.T.);
#359=ORIENTED_EDGE('',*,*,#118,.T.);
#360=EDGE_LOOP('',(#359));
#361=FACE_BOUND('',#360,.T.);
#362=ORIENTED_EDGE('',*,*,#146,.T.);
#363=EDGE_LOOP('',(#362));
#364=FACE_BOUND('',#363,.T.);
#365=ORIENTED_EDGE('',*,*,#174,.T.);
#366=EDGE_LOOP('',(#365));
#367=FACE_BOUND('',#366,.T.);
#368=ORIENTED_EDGE('',*,*,#202,.T.);
#369=EDGE_LOOP('',(#368));
#370=FACE_BOUND('',#369,.T.);
#371=ADVANCED_FACE('',(#352,#355,#358,#361,#364,#367,#370),#346,.T.);
#372=CARTESIAN_POINT('',(0.0,0.0,0.0));
#373=DIRECTION('',(0.0,0.0,1.0));
#374=DIRECTION('',(1.0,0.0,0.0));
#375=AXIS2_PLACEMENT_3D('',#372,#373,#374);
#376=PLANE('',#375);
#377=ORIENTED_EDGE('',*,*,#336,.T.);
#378=ORIENTED_EDGE('',*,*,#247,.T.);
#379=ORIENTED_EDGE('',*,*,#283,.T.);
#380=ORIENTED_EDGE('',*,*,#314,.T.);
#381=EDGE_LOOP('',(#377,#378,#379,#380));
#382=FACE_OUTER_BOUND('',#381,.T.);
#383=ORIENTED_EDGE('',*,*,#73,.T.);
#384=EDGE_LOOP('',(#383));
#385=FACE_BOUND('',#384,.T.);
#386=ORIENTED_EDGE('',*,*,#101,.T.);
#387=EDGE_LOOP('',(#386));
#388=FACE_BOUND('',#387,.T.);
#389=ORIENTED_EDGE('',*,*,#129,.T.);
#390=EDGE_LOOP('',(#389));
#391=FACE_BOUND('',#390,.T.);
#392=ORIENTED_EDGE('',*,*,#157,.T.);
#393=EDGE_LOOP('',(#392));
#394=FACE_BOUND('',#393,.T.);
#395=ORIENTED_EDGE('',*,*,#185,.T.);
#396=EDGE_LOOP('',(#395));
#397=FACE_BOUND('',#396,.T.);
#398=ORIENTED_EDGE('',*,*,#213,.T.);
#399=EDGE_LOOP('',(#398));
#400=FACE_BOUND('',#399,.T.);
#401=ADVANCED_FACE('',(#382,#385,#388,#391,#394,#397,#400),#376,.F.);
#402=CLOSED_SHELL('',(#77,#105,#133,#161,#189,#217,#257,#288,#319,#341,#371,#401));
#403=MANIFOLD_SOLID_BREP('',#402);
#404=COLOUR_RGB('Aluminum (Polished)',0.949020028114319,0.925490021705627,0.933332979679108);
#405=FILL_AREA_STYLE_COLOUR('Aluminum (Polished)',#404);
#406=FILL_AREA_STYLE('Aluminum (Polished)',(#405));
#407=SURFACE_STYLE_FILL_AREA(#406);
#408=SURFACE_SIDE_STYLE('Aluminum (Polished)',(#407));
#409=SURFACE_STYLE_USAGE(.BOTH.,#408);
#410=PRESENTATION_STYLE_ASSIGNMENT((#409));
#411=STYLED_ITEM('',(#410),#403);
#412=MECHANICAL_DESIGN_GEOMETRIC_PRESENTATION_REPRESENTATION('',(#411),#42);
#413=ADVANCED_BREP_SHAPE_REPRESENTATION('ABSR',(#403),#42);
#414=SHAPE_REPRESENTATION_RELATIONSHIP('SRR','None',#413,#47);
ENDSEC;
END-ISO-10303-21;
