ISO-10303-21;
HEADER;
FILE_DESCRIPTION (( 'STEP AP214' ),
    '1' );
FILE_NAME ('DSD-0261.STEP',
    '2020-09-22T19:09:41',
    ( '' ),
    ( '' ),
    'SwSTEP 2.0',
    'SolidWorks 2019',
    '' );
FILE_SCHEMA (( 'AUTOMOTIVE_DESIGN' ));
ENDSEC;

DATA;
#1 = CARTESIAN_POINT ( 'NONE',  ( -0.04429133858267630258, -8.214666363284663465E-17, 1.574803149606299080 ) ) ;
#2 = UNCERTAINTY_MEASURE_WITH_UNIT (LENGTH_MEASURE( 1.000000000000000082E-05 ), #143, 'distance_accuracy_value', 'NONE');
#3 = DIRECTION ( 'NONE',  ( -1.000000000000000000, 0.0000000000000000000, 0.0000000000000000000 ) ) ;
#4 = FACE_BOUND ( 'NONE', #11, .T. ) ;
#5 = ORIENTED_EDGE ( 'NONE', *, *, #332, .T. ) ;
#6 = DIRECTION ( 'NONE',  ( 0.0000000000000000000, 0.0000000000000000000, -1.000000000000000000 ) ) ;
#7 = CLOSED_SHELL ( 'NONE', ( #313, #69, #227, #50, #77, #220, #269, #163, #249, #286, #61, #327, #196, #52, #56 ) ) ;
#8 =( NAMED_UNIT ( * ) SI_UNIT ( $, .STERADIAN. ) SOLID_ANGLE_UNIT ( ) );
#9 = MECHANICAL_DESIGN_GEOMETRIC_PRESENTATION_REPRESENTATION (  '', ( #176 ), #67 ) ;
#10 = CYLINDRICAL_SURFACE ( 'NONE', #123, 0.1259842519685039353 ) ;
#11 = EDGE_LOOP ( 'NONE', ( #42 ) ) ;
#12 = CIRCLE ( 'NONE', #172, 0.1279527559055118058 ) ;
#13 = AXIS2_PLACEMENT_3D ( 'NONE', #242, #324, #221 ) ;
#14 = EDGE_LOOP ( 'NONE', ( #68 ) ) ;
#15 = CARTESIAN_POINT ( 'NONE',  ( 0.1279527559055107233, -1.195183497228112323E-16, 0.0000000000000000000 ) ) ;
#16 = DIRECTION ( 'NONE',  ( 1.000000000000000000, 0.0000000000000000000, 0.0000000000000000000 ) ) ;
#17 = EDGE_LOOP ( 'NONE', ( #199 ) ) ;
#18 = ORIENTED_EDGE ( 'NONE', *, *, #332, .F. ) ;
#19 = FACE_OUTER_BOUND ( 'NONE', #71, .T. ) ;
#20 = DIRECTION ( 'NONE',  ( -1.000000000000000000, 0.0000000000000000000, 0.0000000000000000000 ) ) ;
#21 = AXIS2_PLACEMENT_3D ( 'NONE', #218, #63, #194 ) ;
#22 = EDGE_CURVE ( 'NONE', #307, #307, #144, .T. ) ;
#23 = AXIS2_PLACEMENT_3D ( 'NONE', #296, #111, #165 ) ;
#24 = DIRECTION ( 'NONE',  ( -1.000000000000000000, 0.0000000000000000000, 0.0000000000000000000 ) ) ;
#25 = DIRECTION ( 'NONE',  ( -0.0000000000000000000, -0.0000000000000000000, 1.000000000000000000 ) ) ;
#26 = PLANE ( 'NONE',  #101 ) ;
#27 = MECHANICAL_DESIGN_GEOMETRIC_PRESENTATION_REPRESENTATION (  '', ( #292 ), #349 ) ;
#28 = CYLINDRICAL_SURFACE ( 'NONE', #328, 0.06102362204724409711 ) ;
#29 = DIMENSIONAL_EXPONENTS ( 1.000000000000000000, 0.0000000000000000000, 0.0000000000000000000, 0.0000000000000000000, 0.0000000000000000000, 0.0000000000000000000, 0.0000000000000000000 ) ;
#30 = UNCERTAINTY_MEASURE_WITH_UNIT (LENGTH_MEASURE( 1.000000000000000082E-05 ), #129, 'distance_accuracy_value', 'NONE');
#31 = DIRECTION ( 'NONE',  ( 1.000000000000000000, 0.0000000000000000000, 0.0000000000000000000 ) ) ;
#32 = ORIENTED_EDGE ( 'NONE', *, *, #160, .F. ) ;
#33 = FACE_BOUND ( 'NONE', #128, .T. ) ;
#34 = DIRECTION ( 'NONE',  ( 1.000000000000000000, 0.0000000000000000000, 0.0000000000000000000 ) ) ;
#35 = CIRCLE ( 'NONE', #74, 0.1259842519685039353 ) ;
#36 = PRODUCT ( 'DSD-0261', 'DSD-0261', '', ( #133 ) ) ;
#37 = CARTESIAN_POINT ( 'NONE',  ( 0.1279527559055107233, -1.195183497228112323E-16, -0.01574803149606299191 ) ) ;
#38 = EDGE_LOOP ( 'NONE', ( #235 ) ) ;
#39 = SURFACE_STYLE_FILL_AREA ( #95 ) ;
#40 = ORIENTED_EDGE ( 'NONE', *, *, #109, .T. ) ;
#41 = CARTESIAN_POINT ( 'NONE',  ( -1.681793921099562987E-15, 4.268512490100410046E-17, 1.968296479435102569E-13 ) ) ;
#42 = ORIENTED_EDGE ( 'NONE', *, *, #88, .F. ) ;
#43 = DIRECTION ( 'NONE',  ( -0.0000000000000000000, -0.0000000000000000000, -1.000000000000000000 ) ) ;
#44 = EDGE_LOOP ( 'NONE', ( #201 ) ) ;
#45 = CIRCLE ( 'NONE', #306, 0.06102362204724409711 ) ;
#46 = EDGE_LOOP ( 'NONE', ( #205 ) ) ;
#47 = CIRCLE ( 'NONE', #64, 0.1279527559055118058 ) ;
#48 =( LENGTH_UNIT ( ) NAMED_UNIT ( * ) SI_UNIT ( $, .METRE. ) );
#49 = CYLINDRICAL_SURFACE ( 'NONE', #141, 0.1574803149606299191 ) ;
#50 = ADVANCED_FACE ( 'NONE', ( #314, #317 ), #182, .T. ) ;
#51 = FACE_OUTER_BOUND ( 'NONE', #315, .T. ) ;
#52 = ADVANCED_FACE ( 'NONE', ( #157, #285 ), #262, .T. ) ;
#53 = AXIS2_PLACEMENT_3D ( 'NONE', #239, #348, #319 ) ;
#54 = DIRECTION ( 'NONE',  ( 0.0000000000000000000, 0.0000000000000000000, 1.000000000000000000 ) ) ;
#55 = FILL_AREA_STYLE ('',( #299 ) ) ;
#56 = ADVANCED_FACE ( 'NONE', ( #19, #82 ), #138, .T. ) ;
#57 = PLANE ( 'NONE',  #216 ) ;
#58 = AXIS2_PLACEMENT_3D ( 'NONE', #232, #202, #340 ) ;
#59 = DIRECTION ( 'NONE',  ( 1.000000000000000000, 0.0000000000000000000, 0.0000000000000000000 ) ) ;
#60 = DIRECTION ( 'NONE',  ( -0.0000000000000000000, -0.0000000000000000000, -1.000000000000000000 ) ) ;
#61 = ADVANCED_FACE ( 'NONE', ( #294, #107 ), #347, .F. ) ;
#62 = EDGE_LOOP ( 'NONE', ( #32 ) ) ;
#63 = DIRECTION ( 'NONE',  ( -0.0000000000000000000, -0.0000000000000000000, -1.000000000000000000 ) ) ;
#64 = AXIS2_PLACEMENT_3D ( 'NONE', #166, #243, #3 ) ;
#65 = AXIS2_PLACEMENT_3D ( 'NONE', #320, #187, #323 ) ;
#66 = DIRECTION ( 'NONE',  ( -2.966794252716117772E-14, -1.141074712583127560E-15, 1.000000000000000000 ) ) ;
#67 =( GEOMETRIC_REPRESENTATION_CONTEXT ( 3 ) GLOBAL_UNCERTAINTY_ASSIGNED_CONTEXT ( ( #30 ) ) GLOBAL_UNIT_ASSIGNED_CONTEXT ( ( #129, #184, #159 ) ) REPRESENTATION_CONTEXT ( 'NONE', 'WORKASPACE' ) );
#68 = ORIENTED_EDGE ( 'NONE', *, *, #322, .F. ) ;
#69 = ADVANCED_FACE ( 'NONE', ( #51, #268 ), #241, .T. ) ;
#70 = CARTESIAN_POINT ( 'NONE',  ( 2.074497070188799086E-15, -8.537024980200825639E-18, 1.200787401574803237 ) ) ;
#71 = EDGE_LOOP ( 'NONE', ( #253 ) ) ;
#72 = CARTESIAN_POINT ( 'NONE',  ( -0.1259842519685041018, 1.707404996040165128E-17, 1.535433070866141669 ) ) ;
#73 = EDGE_LOOP ( 'NONE', ( #231 ) ) ;
#74 = AXIS2_PLACEMENT_3D ( 'NONE', #162, #321, #24 ) ;
#75 = CARTESIAN_POINT ( 'NONE',  ( 0.1053149606299212532, -7.360963865264587989E-17, 1.574803149606299080 ) ) ;
#76 = EDGE_LOOP ( 'NONE', ( #339 ) ) ;
#77 = ADVANCED_FACE ( 'NONE', ( #211, #104 ), #49, .T. ) ;
#78 = VERTEX_POINT ( 'NONE', #151 ) ;
#79 = ORIENTED_EDGE ( 'NONE', *, *, #255, .F. ) ;
#80 = AXIS2_PLACEMENT_3D ( 'NONE', #41, #102, #289 ) ;
#81 = PRODUCT_RELATED_PRODUCT_CATEGORY ( 'part', '', ( #36 ) ) ;
#82 = FACE_OUTER_BOUND ( 'NONE', #14, .T. ) ;
#83 = EDGE_CURVE ( 'NONE', #312, #312, #341, .T. ) ;
#84 = DIRECTION ( 'NONE',  ( 1.000000000000000000, 0.0000000000000000000, 0.0000000000000000000 ) ) ;
#85 = FACE_OUTER_BOUND ( 'NONE', #207, .T. ) ;
#86 = AXIS2_PLACEMENT_3D ( 'NONE', #265, #214, #112 ) ;
#87 = DIRECTION ( 'NONE',  ( -0.0000000000000000000, -0.0000000000000000000, -1.000000000000000000 ) ) ;
#88 = EDGE_CURVE ( 'NONE', #78, #78, #12, .T. ) ;
#89 = DIRECTION ( 'NONE',  ( 0.0000000000000000000, 0.0000000000000000000, 1.000000000000000000 ) ) ;
#90 = CARTESIAN_POINT ( 'NONE',  ( -0.1385826771653543288, -0.1371612787996062954, 1.574803149606299302 ) ) ;
#91 = FACE_BOUND ( 'NONE', #154, .T. ) ;
#92 = DIRECTION ( 'NONE',  ( 1.000000000000000000, 0.0000000000000000000, 0.0000000000000000000 ) ) ;
#93 = CIRCLE ( 'NONE', #155, 0.1574803149606299191 ) ;
#94 = EDGE_LOOP ( 'NONE', ( #174 ) ) ;
#95 = FILL_AREA_STYLE ('',( #334 ) ) ;
#96 = ORIENTED_EDGE ( 'NONE', *, *, #115, .T. ) ;
#97 = LENGTH_MEASURE_WITH_UNIT ( LENGTH_MEASURE( 0.02539999999999999897 ), #134 );
#98 = EDGE_LOOP ( 'NONE', ( #79 ) ) ;
#99 = VERTEX_POINT ( 'NONE', #254 ) ;
#100 = ORIENTED_EDGE ( 'NONE', *, *, #109, .F. ) ;
#101 = AXIS2_PLACEMENT_3D ( 'NONE', #346, #110, #213 ) ;
#102 = DIRECTION ( 'NONE',  ( 0.0000000000000000000, 0.0000000000000000000, 1.000000000000000000 ) ) ;
#103 = EDGE_LOOP ( 'NONE', ( #117 ) ) ;
#104 = FACE_OUTER_BOUND ( 'NONE', #311, .T. ) ;
#105 = ADVANCED_BREP_SHAPE_REPRESENTATION ( 'DSD-0261', ( #203, #58 ), #291 ) ;
#106 = CIRCLE ( 'NONE', #293, 0.1259842519685039353 ) ;
#107 = FACE_OUTER_BOUND ( 'NONE', #279, .T. ) ;
#108 = AXIS2_PLACEMENT_3D ( 'NONE', #178, #290, #124 ) ;
#109 = EDGE_CURVE ( 'NONE', #125, #125, #156, .T. ) ;
#110 = DIRECTION ( 'NONE',  ( 0.0000000000000000000, 0.0000000000000000000, 1.000000000000000000 ) ) ;
#111 = DIRECTION ( 'NONE',  ( 2.619936014988884217E-15, -7.295223830474276927E-22, -1.000000000000000000 ) ) ;
#112 = DIRECTION ( 'NONE',  ( 1.000000000000000000, 0.0000000000000000000, 0.0000000000000000000 ) ) ;
#113 = CARTESIAN_POINT ( 'NONE',  ( -1.622034746238155731E-16, 1.707404996040165128E-17, 1.574803149606299302 ) ) ;
#114 = FACE_OUTER_BOUND ( 'NONE', #98, .T. ) ;
#115 = EDGE_CURVE ( 'NONE', #120, #120, #248, .T. ) ;
#116 = DIRECTION ( 'NONE',  ( 1.000000000000000000, 0.0000000000000000000, 0.0000000000000000000 ) ) ;
#117 = ORIENTED_EDGE ( 'NONE', *, *, #266, .F. ) ;
#118 = FACE_OUTER_BOUND ( 'NONE', #94, .T. ) ;
#119 = FACE_OUTER_BOUND ( 'NONE', #152, .T. ) ;
#120 = VERTEX_POINT ( 'NONE', #204 ) ;
#121 = AXIS2_PLACEMENT_3D ( 'NONE', #225, #257, #84 ) ;
#122 =( LENGTH_UNIT ( ) NAMED_UNIT ( * ) SI_UNIT ( $, .METRE. ) );
#123 = AXIS2_PLACEMENT_3D ( 'NONE', #278, #284, #127 ) ;
#124 = DIRECTION ( 'NONE',  ( 1.000000000000000000, 0.0000000000000000000, 0.0000000000000000000 ) ) ;
#125 = VERTEX_POINT ( 'NONE', #287 ) ;
#126 = EDGE_LOOP ( 'NONE', ( #100 ) ) ;
#127 = DIRECTION ( 'NONE',  ( -1.000000000000000000, 0.0000000000000000000, 0.0000000000000000000 ) ) ;
#128 = EDGE_LOOP ( 'NONE', ( #288 ) ) ;
#129 =( CONVERSION_BASED_UNIT ( 'INCH', #97 ) LENGTH_UNIT ( ) NAMED_UNIT ( #325 ) );
#130 =( NAMED_UNIT ( * ) PLANE_ANGLE_UNIT ( ) SI_UNIT ( $, .RADIAN. ) );
#131 = EDGE_LOOP ( 'NONE', ( #150 ) ) ;
#132 = CIRCLE ( 'NONE', #304, 0.1279527559055118058 ) ;
#133 = PRODUCT_CONTEXT ( 'NONE', #237, 'mechanical' ) ;
#134 =( LENGTH_UNIT ( ) NAMED_UNIT ( * ) SI_UNIT ( $, .METRE. ) );
#135 = ORIENTED_EDGE ( 'NONE', *, *, #212, .T. ) ;
#136 = FACE_OUTER_BOUND ( 'NONE', #229, .T. ) ;
#137 = PRESENTATION_LAYER_ASSIGNMENT (  '', '', ( #292 ) ) ;
#138 = CYLINDRICAL_SURFACE ( 'NONE', #330, 0.1279527559055118058 ) ;
#139 = CARTESIAN_POINT ( 'NONE',  ( 0.06791338582677165780, -7.360963865264587989E-17, 1.417322834645669216 ) ) ;
#140 = SURFACE_SIDE_STYLE ('',( #297 ) ) ;
#141 = AXIS2_PLACEMENT_3D ( 'NONE', #267, #54, #164 ) ;
#142 = FACE_OUTER_BOUND ( 'NONE', #44, .T. ) ;
#143 =( CONVERSION_BASED_UNIT ( 'INCH', #169 ) LENGTH_UNIT ( ) NAMED_UNIT ( #29 ) );
#144 = CIRCLE ( 'NONE', #345, 0.1574803149606299191 ) ;
#145 = FACE_OUTER_BOUND ( 'NONE', #126, .T. ) ;
#146 = CARTESIAN_POINT ( 'NONE',  ( -0.1279527559055128605, 1.543742011875732110E-16, 1.535433070866141669 ) ) ;
#147 = EDGE_LOOP ( 'NONE', ( #281 ) ) ;
#148 = AXIS2_PLACEMENT_3D ( 'NONE', #173, #6, #59 ) ;
#149 = SURFACE_STYLE_USAGE ( .BOTH. , #200 ) ;
#150 = ORIENTED_EDGE ( 'NONE', *, *, #212, .F. ) ;
#151 = CARTESIAN_POINT ( 'NONE',  ( -0.1279527559055128605, 1.543742011875732110E-16, 1.220472440944881942 ) ) ;
#152 = EDGE_LOOP ( 'NONE', ( #236 ) ) ;
#153 = VERTEX_POINT ( 'NONE', #258 ) ;
#154 = EDGE_LOOP ( 'NONE', ( #175 ) ) ;
#155 = AXIS2_PLACEMENT_3D ( 'NONE', #70, #43, #198 ) ;
#156 = CIRCLE ( 'NONE', #86, 0.06102362204724409711 ) ;
#157 = FACE_BOUND ( 'NONE', #62, .T. ) ;
#158 = CIRCLE ( 'NONE', #282, 0.1279527559055118058 ) ;
#159 =( NAMED_UNIT ( * ) SI_UNIT ( $, .STERADIAN. ) SOLID_ANGLE_UNIT ( ) );
#160 = EDGE_CURVE ( 'NONE', #222, #222, #35, .T. ) ;
#161 = CARTESIAN_POINT ( 'NONE',  ( -1.067128122525102136E-15, 1.543742011875732110E-16, 1.220472440944881942 ) ) ;
#162 = CARTESIAN_POINT ( 'NONE',  ( -1.622034746238155731E-16, 1.707404996040165128E-17, 1.535433070866141669 ) ) ;
#163 = ADVANCED_FACE ( 'NONE', ( #136 ), #26, .T. ) ;
#164 = DIRECTION ( 'NONE',  ( 1.000000000000000000, 0.0000000000000000000, 0.0000000000000000000 ) ) ;
#165 = DIRECTION ( 'NONE',  ( -1.000000000000000000, 0.0000000000000000000, -2.619936014988884217E-15 ) ) ;
#166 = CARTESIAN_POINT ( 'NONE',  ( -1.067128122525102136E-15, 1.543742011875732110E-16, 1.535433070866141669 ) ) ;
#167 = PRESENTATION_LAYER_ASSIGNMENT (  '', '', ( #176 ) ) ;
#168 = DIRECTION ( 'NONE',  ( -1.000000000000000000, 0.0000000000000000000, 0.0000000000000000000 ) ) ;
#169 = LENGTH_MEASURE_WITH_UNIT ( LENGTH_MEASURE( 0.02539999999999999897 ), #48 );
#170 = EDGE_LOOP ( 'NONE', ( #259 ) ) ;
#171 = CARTESIAN_POINT ( 'NONE',  ( -0.04429133858267630258, -8.214666363284663465E-17, 1.417322834645669216 ) ) ;
#172 = AXIS2_PLACEMENT_3D ( 'NONE', #161, #25, #186 ) ;
#173 = CARTESIAN_POINT ( 'NONE',  ( -0.1407480314960629919, 0.1393044237808503949, -0.01574803149606299191 ) ) ;
#174 = ORIENTED_EDGE ( 'NONE', *, *, #234, .T. ) ;
#175 = ORIENTED_EDGE ( 'NONE', *, *, #234, .F. ) ;
#176 = STYLED_ITEM ( 'NONE', ( #261 ), #105 ) ;
#177 = CARTESIAN_POINT ( 'NONE',  ( 0.1377952755907480564, -1.209557299156795472E-16, 1.220472440944754711 ) ) ;
#178 = CARTESIAN_POINT ( 'NONE',  ( -1.075665147505302989E-15, -1.195183497228112323E-16, -0.01574803149606299191 ) ) ;
#179 = VERTEX_POINT ( 'NONE', #228 ) ;
#180 = EDGE_LOOP ( 'NONE', ( #247 ) ) ;
#181 = VERTEX_POINT ( 'NONE', #15 ) ;
#182 = CYLINDRICAL_SURFACE ( 'NONE', #108, 0.1279527559055118058 ) ;
#183 = CONICAL_SURFACE ( 'NONE', #13, 0.1377952755905529625, 0.7853981633974482790 ) ;
#184 =( NAMED_UNIT ( * ) PLANE_ANGLE_UNIT ( ) SI_UNIT ( $, .RADIAN. ) );
#185 = DIRECTION ( 'NONE',  ( 0.0000000000000000000, 0.0000000000000000000, 1.000000000000000000 ) ) ;
#186 = DIRECTION ( 'NONE',  ( -1.000000000000000000, 0.0000000000000000000, 0.0000000000000000000 ) ) ;
#187 = DIRECTION ( 'NONE',  ( 0.0000000000000000000, 0.0000000000000000000, 1.000000000000000000 ) ) ;
#188 = PRODUCT_DEFINITION ( 'UNKNOWN', '', #223, #193 ) ;
#189 = CARTESIAN_POINT ( 'NONE',  ( -1.075665147505302989E-15, -1.195183497228112323E-16, 0.0000000000000000000 ) ) ;
#190 = FACE_BOUND ( 'NONE', #73, .T. ) ;
#191 = CARTESIAN_POINT ( 'NONE',  ( -1.681793921099562987E-15, 4.268512490100410046E-17, 0.0000000000000000000 ) ) ;
#192 = AXIS2_PLACEMENT_3D ( 'NONE', #215, #87, #270 ) ;
#193 = PRODUCT_DEFINITION_CONTEXT ( 'detailed design', #310, 'design' ) ;
#194 = DIRECTION ( 'NONE',  ( 1.000000000000000000, 0.0000000000000000000, 0.0000000000000000000 ) ) ;
#195 = PLANE ( 'NONE',  #333 ) ;
#196 = ADVANCED_FACE ( 'NONE', ( #85 ), #298, .T. ) ;
#197 = DIRECTION ( 'NONE',  ( -0.0000000000000000000, -0.0000000000000000000, -1.000000000000000000 ) ) ;
#198 = DIRECTION ( 'NONE',  ( 1.000000000000000000, 0.0000000000000000000, 0.0000000000000000000 ) ) ;
#199 = ORIENTED_EDGE ( 'NONE', *, *, #160, .T. ) ;
#200 = SURFACE_SIDE_STYLE ('',( #39 ) ) ;
#201 = ORIENTED_EDGE ( 'NONE', *, *, #255, .T. ) ;
#202 = DIRECTION ( 'NONE',  ( 0.0000000000000000000, 0.0000000000000000000, 1.000000000000000000 ) ) ;
#203 = MANIFOLD_SOLID_BREP ( 'Surface-Fill2', #7 ) ;
#204 = CARTESIAN_POINT ( 'NONE',  ( 0.1053149606299212532, -7.360963865264587989E-17, 1.535433070866141669 ) ) ;
#205 = ORIENTED_EDGE ( 'NONE', *, *, #295, .F. ) ;
#206 = AXIS2_PLACEMENT_3D ( 'NONE', #139, #185, #238 ) ;
#207 = EDGE_LOOP ( 'NONE', ( #274 ) ) ;
#208 = VERTEX_POINT ( 'NONE', #75 ) ;
#209 = CARTESIAN_POINT ( 'NONE',  ( 2.074497070188799086E-15, -8.537024980200825639E-18, 0.01968503937007873988 ) ) ;
#210 = PRESENTATION_STYLE_ASSIGNMENT (( #344 ) ) ;
#211 = FACE_OUTER_BOUND ( 'NONE', #38, .T. ) ;
#212 = EDGE_CURVE ( 'NONE', #181, #181, #132, .T. ) ;
#213 = DIRECTION ( 'NONE',  ( 1.000000000000000000, 0.0000000000000000000, 0.0000000000000000000 ) ) ;
#214 = DIRECTION ( 'NONE',  ( 0.0000000000000000000, 0.0000000000000000000, 1.000000000000000000 ) ) ;
#215 = CARTESIAN_POINT ( 'NONE',  ( 0.06791338582677165780, -7.360963865264587989E-17, 1.535433070866141669 ) ) ;
#216 = AXIS2_PLACEMENT_3D ( 'NONE', #90, #275, #245 ) ;
#217 = DIRECTION ( 'NONE',  ( -0.0000000000000000000, -0.0000000000000000000, 1.000000000000000000 ) ) ;
#218 = CARTESIAN_POINT ( 'NONE',  ( 0.06791338582677165780, -7.360963865264587989E-17, 1.574803149606299080 ) ) ;
#219 = CARTESIAN_POINT ( 'NONE',  ( -3.620890623393297727E-14, -1.392650239766659298E-15, 1.220472440944750714 ) ) ;
#220 = ADVANCED_FACE ( 'NONE', ( #33, #272 ), #260, .T. ) ;
#221 = DIRECTION ( 'NONE',  ( -1.000000000000000000, 0.0000000000000000000, 0.0000000000000000000 ) ) ;
#222 = VERTEX_POINT ( 'NONE', #72 ) ;
#223 = PRODUCT_DEFINITION_FORMATION_WITH_SPECIFIED_SOURCE ( 'ANY', '', #36, .NOT_KNOWN. ) ;
#224 = AXIS2_PLACEMENT_3D ( 'NONE', #191, #301, #116 ) ;
#225 = CARTESIAN_POINT ( 'NONE',  ( -0.1732283464566929387, -0.1714515984995078623, 1.535433070866141669 ) ) ;
#226 = APPLICATION_PROTOCOL_DEFINITION ( 'draft international standard', 'automotive_design', 1998, #310 ) ;
#227 = ADVANCED_FACE ( 'NONE', ( #119 ), #326, .T. ) ;
#228 = CARTESIAN_POINT ( 'NONE',  ( -0.1259842519685041018, 1.707404996040165128E-17, 1.574803149606299302 ) ) ;
#229 = EDGE_LOOP ( 'NONE', ( #40 ) ) ;
#230 = CARTESIAN_POINT ( 'NONE',  ( 0.01673228346456779453, -8.214666363284663465E-17, 1.574803149606299080 ) ) ;
#231 = ORIENTED_EDGE ( 'NONE', *, *, #295, .T. ) ;
#232 = CARTESIAN_POINT ( 'NONE',  ( 0.0000000000000000000, 0.0000000000000000000, 0.0000000000000000000 ) ) ;
#233 = UNCERTAINTY_MEASURE_WITH_UNIT (LENGTH_MEASURE( 1.000000000000000082E-05 ), #342, 'distance_accuracy_value', 'NONE');
#234 = EDGE_CURVE ( 'NONE', #256, #256, #45, .T. ) ;
#235 = ORIENTED_EDGE ( 'NONE', *, *, #22, .T. ) ;
#236 = ORIENTED_EDGE ( 'NONE', *, *, #266, .T. ) ;
#237 = APPLICATION_CONTEXT ( 'automotive_design' ) ;
#238 = DIRECTION ( 'NONE',  ( 1.000000000000000000, 0.0000000000000000000, 0.0000000000000000000 ) ) ;
#239 = CARTESIAN_POINT ( 'NONE',  ( -1.728747558492612222E-15, -1.209557299156795472E-16, 1.220472440944750714 ) ) ;
#240 = DIRECTION ( 'NONE',  ( 0.0000000000000000000, 0.0000000000000000000, -1.000000000000000000 ) ) ;
#241 = PLANE ( 'NONE',  #23 ) ;
#242 = CARTESIAN_POINT ( 'NONE',  ( -1.728747558490667089E-15, -1.209557299156047287E-16, 1.220472440944881942 ) ) ;
#243 = DIRECTION ( 'NONE',  ( -0.0000000000000000000, -0.0000000000000000000, 1.000000000000000000 ) ) ;
#244 = DIMENSIONAL_EXPONENTS ( 1.000000000000000000, 0.0000000000000000000, 0.0000000000000000000, 0.0000000000000000000, 0.0000000000000000000, 0.0000000000000000000, 0.0000000000000000000 ) ;
#245 = DIRECTION ( 'NONE',  ( 1.000000000000000000, 0.0000000000000000000, 0.0000000000000000000 ) ) ;
#246 = FACE_BOUND ( 'NONE', #180, .T. ) ;
#247 = ORIENTED_EDGE ( 'NONE', *, *, #83, .T. ) ;
#248 = CIRCLE ( 'NONE', #192, 0.03740157480314960231 ) ;
#249 = ADVANCED_FACE ( 'NONE', ( #118, #145 ), #28, .F. ) ;
#250 =( NAMED_UNIT ( * ) SI_UNIT ( $, .STERADIAN. ) SOLID_ANGLE_UNIT ( ) );
#251 = LENGTH_MEASURE_WITH_UNIT ( LENGTH_MEASURE( 0.02539999999999999897 ), #122 );
#252 = APPLICATION_PROTOCOL_DEFINITION ( 'draft international standard', 'automotive_design', 1998, #237 ) ;
#253 = ORIENTED_EDGE ( 'NONE', *, *, #88, .T. ) ;
#254 = CARTESIAN_POINT ( 'NONE',  ( 0.1377952755907481119, 4.268512490100410046E-17, 1.968296479435102569E-13 ) ) ;
#255 = EDGE_CURVE ( 'NONE', #179, #179, #106, .T. ) ;
#256 = VERTEX_POINT ( 'NONE', #230 ) ;
#257 = DIRECTION ( 'NONE',  ( 0.0000000000000000000, 0.0000000000000000000, 1.000000000000000000 ) ) ;
#258 = CARTESIAN_POINT ( 'NONE',  ( 0.1574803149606320007, -8.537024980200825639E-18, 1.200787401574803237 ) ) ;
#259 = ORIENTED_EDGE ( 'NONE', *, *, #322, .T. ) ;
#260 = CONICAL_SURFACE ( 'NONE', #224, 0.1377952755905529625, 0.7853981633974476129 ) ;
#261 = PRESENTATION_STYLE_ASSIGNMENT (( #149 ) ) ;
#262 = PLANE ( 'NONE',  #121 ) ;
#263 = SHAPE_DEFINITION_REPRESENTATION ( #308, #105 ) ;
#264 = CARTESIAN_POINT ( 'NONE',  ( -1.067128122525102136E-15, 1.543742011875732110E-16, 1.535433070866141669 ) ) ;
#265 = CARTESIAN_POINT ( 'NONE',  ( -0.04429133858267630258, -8.214666363284663465E-17, 1.535433070866141669 ) ) ;
#266 = EDGE_CURVE ( 'NONE', #338, #338, #158, .T. ) ;
#267 = CARTESIAN_POINT ( 'NONE',  ( 2.074497070188799086E-15, -8.537024980200825639E-18, 0.0000000000000000000 ) ) ;
#268 = FACE_BOUND ( 'NONE', #131, .T. ) ;
#269 = ADVANCED_FACE ( 'NONE', ( #246, #329 ), #183, .T. ) ;
#270 = DIRECTION ( 'NONE',  ( 1.000000000000000000, 0.0000000000000000000, 0.0000000000000000000 ) ) ;
#271 = COLOUR_RGB ( '',0.7921568627450980005, 0.8196078431372548767, 0.9333333333333333481 ) ;
#272 = FACE_OUTER_BOUND ( 'NONE', #147, .T. ) ;
#273 = CIRCLE ( 'NONE', #21, 0.03740157480314960231 ) ;
#274 = ORIENTED_EDGE ( 'NONE', *, *, #115, .F. ) ;
#275 = DIRECTION ( 'NONE',  ( 0.0000000000000000000, 0.0000000000000000000, 1.000000000000000000 ) ) ;
#276 = CARTESIAN_POINT ( 'NONE',  ( -1.075665147505302989E-15, -1.195183497228112323E-16, -0.01574803149606299191 ) ) ;
#277 = DIRECTION ( 'NONE',  ( 1.000000000000000000, 0.0000000000000000000, 0.0000000000000000000 ) ) ;
#278 = CARTESIAN_POINT ( 'NONE',  ( -1.622034746238155731E-16, 1.707404996040165128E-17, 1.574803149606299302 ) ) ;
#279 = EDGE_LOOP ( 'NONE', ( #96 ) ) ;
#280 = VERTEX_POINT ( 'NONE', #146 ) ;
#281 = ORIENTED_EDGE ( 'NONE', *, *, #22, .F. ) ;
#282 = AXIS2_PLACEMENT_3D ( 'NONE', #276, #197, #277 ) ;
#283 = COLOUR_RGB ( '',0.7921568627450980005, 0.8196078431372548767, 0.9333333333333333481 ) ;
#284 = DIRECTION ( 'NONE',  ( 0.0000000000000000000, 0.0000000000000000000, -1.000000000000000000 ) ) ;
#285 = FACE_OUTER_BOUND ( 'NONE', #170, .T. ) ;
#286 = ADVANCED_FACE ( 'NONE', ( #91, #190, #142 ), #57, .T. ) ;
#287 = CARTESIAN_POINT ( 'NONE',  ( 0.01673228346456779453, -8.214666363284663465E-17, 1.535433070866141669 ) ) ;
#288 = ORIENTED_EDGE ( 'NONE', *, *, #336, .T. ) ;
#289 = DIRECTION ( 'NONE',  ( 1.000000000000000000, 0.0000000000000000000, 0.0000000000000000000 ) ) ;
#290 = DIRECTION ( 'NONE',  ( 0.0000000000000000000, 0.0000000000000000000, 1.000000000000000000 ) ) ;
#291 =( GEOMETRIC_REPRESENTATION_CONTEXT ( 3 ) GLOBAL_UNCERTAINTY_ASSIGNED_CONTEXT ( ( #233 ) ) GLOBAL_UNIT_ASSIGNED_CONTEXT ( ( #342, #130, #8 ) ) REPRESENTATION_CONTEXT ( 'NONE', 'WORKASPACE' ) );
#292 = STYLED_ITEM ( 'NONE', ( #210 ), #203 ) ;
#293 = AXIS2_PLACEMENT_3D ( 'NONE', #113, #217, #168 ) ;
#294 = FACE_OUTER_BOUND ( 'NONE', #46, .T. ) ;
#295 = EDGE_CURVE ( 'NONE', #208, #208, #273, .T. ) ;
#296 = CARTESIAN_POINT ( 'NONE',  ( -2.577949473742540644E-28, 7.178312114116646692E-35, 9.839742111997639686E-14 ) ) ;
#297 = SURFACE_STYLE_FILL_AREA ( #55 ) ;
#298 = PLANE ( 'NONE',  #65 ) ;
#299 = FILL_AREA_STYLE_COLOUR ( '', #283 ) ;
#300 = DIRECTION ( 'NONE',  ( 1.000000000000000000, 0.0000000000000000000, 2.966794252716117772E-14 ) ) ;
#301 = DIRECTION ( 'NONE',  ( 0.0000000000000000000, 0.0000000000000000000, 1.000000000000000000 ) ) ;
#302 = FACE_OUTER_BOUND ( 'NONE', #17, .T. ) ;
#303 =( NAMED_UNIT ( * ) PLANE_ANGLE_UNIT ( ) SI_UNIT ( $, .RADIAN. ) );
#304 = AXIS2_PLACEMENT_3D ( 'NONE', #189, #60, #92 ) ;
#305 = DIRECTION ( 'NONE',  ( 0.0000000000000000000, 0.0000000000000000000, 1.000000000000000000 ) ) ;
#306 = AXIS2_PLACEMENT_3D ( 'NONE', #1, #305, #34 ) ;
#307 = VERTEX_POINT ( 'NONE', #316 ) ;
#308 = PRODUCT_DEFINITION_SHAPE ( 'NONE', 'NONE',  #188 ) ;
#309 = EDGE_LOOP ( 'NONE', ( #135 ) ) ;
#310 = APPLICATION_CONTEXT ( 'automotive_design' ) ;
#311 = EDGE_LOOP ( 'NONE', ( #5 ) ) ;
#312 = VERTEX_POINT ( 'NONE', #177 ) ;
#313 = ADVANCED_FACE ( 'NONE', ( #331, #4 ), #195, .T. ) ;
#314 = FACE_OUTER_BOUND ( 'NONE', #103, .T. ) ;
#315 = EDGE_LOOP ( 'NONE', ( #343 ) ) ;
#316 = CARTESIAN_POINT ( 'NONE',  ( 0.1574803149606320007, -8.537024980200825639E-18, 0.01968503937007873988 ) ) ;
#317 = FACE_OUTER_BOUND ( 'NONE', #309, .T. ) ;
#318 = CIRCLE ( 'NONE', #80, 0.1377952755907498050 ) ;
#319 = DIRECTION ( 'NONE',  ( 1.000000000000000000, 0.0000000000000000000, 2.973811673098811251E-14 ) ) ;
#320 = CARTESIAN_POINT ( 'NONE',  ( -0.1245078740157480324, -0.1232308364215196905, 1.535433070866141669 ) ) ;
#321 = DIRECTION ( 'NONE',  ( -0.0000000000000000000, -0.0000000000000000000, 1.000000000000000000 ) ) ;
#322 = EDGE_CURVE ( 'NONE', #280, #280, #47, .T. ) ;
#323 = DIRECTION ( 'NONE',  ( 1.000000000000000000, 0.0000000000000000000, 0.0000000000000000000 ) ) ;
#324 = DIRECTION ( 'NONE',  ( 0.0000000000000000000, 0.0000000000000000000, -1.000000000000000000 ) ) ;
#325 = DIMENSIONAL_EXPONENTS ( 1.000000000000000000, 0.0000000000000000000, 0.0000000000000000000, 0.0000000000000000000, 0.0000000000000000000, 0.0000000000000000000, 0.0000000000000000000 ) ;
#326 = PLANE ( 'NONE',  #148 ) ;
#327 = ADVANCED_FACE ( 'NONE', ( #114, #302 ), #10, .T. ) ;
#328 = AXIS2_PLACEMENT_3D ( 'NONE', #171, #89, #31 ) ;
#329 = FACE_OUTER_BOUND ( 'NONE', #335, .T. ) ;
#330 = AXIS2_PLACEMENT_3D ( 'NONE', #264, #240, #20 ) ;
#331 = FACE_OUTER_BOUND ( 'NONE', #76, .T. ) ;
#332 = EDGE_CURVE ( 'NONE', #153, #153, #93, .T. ) ;
#333 = AXIS2_PLACEMENT_3D ( 'NONE', #219, #66, #300 ) ;
#334 = FILL_AREA_STYLE_COLOUR ( '', #271 ) ;
#335 = EDGE_LOOP ( 'NONE', ( #18 ) ) ;
#336 = EDGE_CURVE ( 'NONE', #99, #99, #318, .T. ) ;
#337 = DIRECTION ( 'NONE',  ( 0.0000000000000000000, 0.0000000000000000000, 1.000000000000000000 ) ) ;
#338 = VERTEX_POINT ( 'NONE', #37 ) ;
#339 = ORIENTED_EDGE ( 'NONE', *, *, #83, .F. ) ;
#340 = DIRECTION ( 'NONE',  ( 1.000000000000000000, 0.0000000000000000000, 0.0000000000000000000 ) ) ;
#341 = CIRCLE ( 'NONE', #53, 0.1377952755907498050 ) ;
#342 =( CONVERSION_BASED_UNIT ( 'INCH', #251 ) LENGTH_UNIT ( ) NAMED_UNIT ( #244 ) );
#343 = ORIENTED_EDGE ( 'NONE', *, *, #336, .F. ) ;
#344 = SURFACE_STYLE_USAGE ( .BOTH. , #140 ) ;
#345 = AXIS2_PLACEMENT_3D ( 'NONE', #209, #337, #16 ) ;
#346 = CARTESIAN_POINT ( 'NONE',  ( -0.1245078740157480324, -0.1232308364215196905, 1.535433070866141669 ) ) ;
#347 = CYLINDRICAL_SURFACE ( 'NONE', #206, 0.03740157480314960231 ) ;
#348 = DIRECTION ( 'NONE',  ( 2.966794252716117772E-14, 1.141074712583127560E-15, -1.000000000000000000 ) ) ;
#349 =( GEOMETRIC_REPRESENTATION_CONTEXT ( 3 ) GLOBAL_UNCERTAINTY_ASSIGNED_CONTEXT ( ( #2 ) ) GLOBAL_UNIT_ASSIGNED_CONTEXT ( ( #143, #303, #250 ) ) REPRESENTATION_CONTEXT ( 'NONE', 'WORKASPACE' ) );
ENDSEC;
END-ISO-10303-21;
