ISO-10303-21;
HEADER;
FILE_DESCRIPTION (( 'STEP AP214' ),
    '1' );
FILE_NAME ('DSD-0262.STEP',
    '2020-09-22T19:13:19',
    ( '' ),
    ( '' ),
    'SwSTEP 2.0',
    'SolidWorks 2019',
    '' );
FILE_SCHEMA (( 'AUTOMOTIVE_DESIGN' ));
ENDSEC;

DATA;
#1 = FACE_OUTER_BOUND ( 'NONE', #19, .T. ) ;
#2 = DIRECTION ( 'NONE',  ( 0.0000000000000000000, -0.0000000000000000000, 1.000000000000000000 ) ) ;
#3 = DIRECTION ( 'NONE',  ( 1.000000000000000000, -1.432517866536626244E-16, 0.0000000000000000000 ) ) ;
#4 = CLOSED_SHELL ( 'NONE', ( #88, #228, #246, #124, #198, #320, #42, #298, #80, #183, #233, #257, #148, #173, #66 ) ) ;
#5 = VERTEX_POINT ( 'NONE', #240 ) ;
#6 = ORIENTED_EDGE ( 'NONE', *, *, #98, .F. ) ;
#7 = AXIS2_PLACEMENT_3D ( 'NONE', #39, #195, #303 ) ;
#8 = EDGE_CURVE ( 'NONE', #236, #236, #291, .T. ) ;
#9 = DIRECTION ( 'NONE',  ( 1.000000000000000000, 0.0000000000000000000, 0.0000000000000000000 ) ) ;
#10 = ORIENTED_EDGE ( 'NONE', *, *, #275, .F. ) ;
#11 = CARTESIAN_POINT ( 'NONE',  ( 3.249999999999968026, 3.487423841170157095E-15, 31.00000000000000000 ) ) ;
#12 = EDGE_LOOP ( 'NONE', ( #239 ) ) ;
#13 = PLANE ( 'NONE',  #314 ) ;
#14 = AXIS2_PLACEMENT_3D ( 'NONE', #277, #65, #216 ) ;
#15 = FILL_AREA_STYLE ('',( #247 ) ) ;
#16 = DIRECTION ( 'NONE',  ( 1.000000000000000000, 0.0000000000000000000, 0.0000000000000000000 ) ) ;
#17 = VERTEX_POINT ( 'NONE', #138 ) ;
#18 = ORIENTED_EDGE ( 'NONE', *, *, #281, .T. ) ;
#19 = EDGE_LOOP ( 'NONE', ( #288 ) ) ;
#20 = ORIENTED_EDGE ( 'NONE', *, *, #55, .T. ) ;
#21 = AXIS2_PLACEMENT_3D ( 'NONE', #323, #85, #111 ) ;
#22 = EDGE_CURVE ( 'NONE', #258, #258, #32, .T. ) ;
#23 = UNCERTAINTY_MEASURE_WITH_UNIT (LENGTH_MEASURE( 1.000000000000000082E-05 ), #265, 'distance_accuracy_value', 'NONE');
#24 = ADVANCED_BREP_SHAPE_REPRESENTATION ( 'DSD-0262', ( #264, #7 ), #160 ) ;
#25 = DIRECTION ( 'NONE',  ( 1.000000000000000000, 0.0000000000000000000, 0.0000000000000000000 ) ) ;
#26 = DIRECTION ( 'NONE',  ( 1.000000000000000000, 0.0000000000000000000, 0.0000000000000000000 ) ) ;
#27 = AXIS2_PLACEMENT_3D ( 'NONE', #280, #203, #50 ) ;
#28 = FILL_AREA_STYLE ('',( #255 ) ) ;
#29 = CARTESIAN_POINT ( 'NONE',  ( 3.499999999999998668, -4.336808689942017736E-16, -8.673617379884028570E-16 ) ) ;
#30 = EDGE_LOOP ( 'NONE', ( #136 ) ) ;
#31 = EDGE_CURVE ( 'NONE', #84, #84, #254, .T. ) ;
#32 = CIRCLE ( 'NONE', #201, 3.249999999999996003 ) ;
#33 =( NAMED_UNIT ( * ) PLANE_ANGLE_UNIT ( ) SI_UNIT ( $, .RADIAN. ) );
#34 = EDGE_LOOP ( 'NONE', ( #119 ) ) ;
#35 = VERTEX_POINT ( 'NONE', #40 ) ;
#36 = ORIENTED_EDGE ( 'NONE', *, *, #140, .T. ) ;
#37 = CARTESIAN_POINT ( 'NONE',  ( 4.000000000000062172, 6.740754805355325486E-30, 30.49999999999992184 ) ) ;
#38 = EDGE_LOOP ( 'NONE', ( #209 ) ) ;
#39 = CARTESIAN_POINT ( 'NONE',  ( 0.0000000000000000000, 0.0000000000000000000, 0.0000000000000000000 ) ) ;
#40 = CARTESIAN_POINT ( 'NONE',  ( -3.200000000000003286, 4.336808689942017736E-16, 40.00000000000000000 ) ) ;
#41 = EDGE_LOOP ( 'NONE', ( #10 ) ) ;
#42 = ADVANCED_FACE ( 'NONE', ( #143 ), #304, .T. ) ;
#43 = PRESENTATION_LAYER_ASSIGNMENT (  '', '', ( #188 ) ) ;
#44 = DIRECTION ( 'NONE',  ( 0.0000000000000000000, 0.0000000000000000000, 1.000000000000000000 ) ) ;
#45 = FACE_OUTER_BOUND ( 'NONE', #330, .T. ) ;
#46 = EDGE_LOOP ( 'NONE', ( #36 ) ) ;
#47 = DIRECTION ( 'NONE',  ( 0.0000000000000000000, 0.0000000000000000000, 1.000000000000000000 ) ) ;
#48 = AXIS2_PLACEMENT_3D ( 'NONE', #301, #44, #199 ) ;
#49 = FACE_OUTER_BOUND ( 'NONE', #242, .T. ) ;
#50 = DIRECTION ( 'NONE',  ( 1.000000000000000000, 0.0000000000000000000, 0.0000000000000000000 ) ) ;
#51 = CARTESIAN_POINT ( 'NONE',  ( -4.119968255444916849E-15, 4.336808689942017736E-16, 39.00000000000000000 ) ) ;
#52 = AXIS2_PLACEMENT_3D ( 'NONE', #174, #179, #200 ) ;
#53 = FACE_OUTER_BOUND ( 'NONE', #244, .T. ) ;
#54 = DIRECTION ( 'NONE',  ( 0.0000000000000000000, 0.0000000000000000000, 1.000000000000000000 ) ) ;
#55 = EDGE_CURVE ( 'NONE', #296, #296, #248, .T. ) ;
#56 = EDGE_LOOP ( 'NONE', ( #139 ) ) ;
#57 = AXIS2_PLACEMENT_3D ( 'NONE', #92, #273, #327 ) ;
#58 = DIRECTION ( 'NONE',  ( -1.000000000000000000, 0.0000000000000000000, 0.0000000000000000000 ) ) ;
#59 = DIRECTION ( 'NONE',  ( -0.0000000000000000000, 0.0000000000000000000, 1.000000000000000000 ) ) ;
#60 = VERTEX_POINT ( 'NONE', #29 ) ;
#61 = ORIENTED_EDGE ( 'NONE', *, *, #220, .F. ) ;
#62 = AXIS2_PLACEMENT_3D ( 'NONE', #108, #59, #235 ) ;
#63 = SURFACE_STYLE_USAGE ( .BOTH. , #68 ) ;
#64 = DIRECTION ( 'NONE',  ( -1.000000000000000000, 0.0000000000000000000, 0.0000000000000000000 ) ) ;
#65 = DIRECTION ( 'NONE',  ( -0.0000000000000000000, -0.0000000000000000000, -1.000000000000000000 ) ) ;
#66 = ADVANCED_FACE ( 'NONE', ( #172, #276 ), #110, .T. ) ;
#67 = CARTESIAN_POINT ( 'NONE',  ( -2.808083626737456484E-14, 3.487423841170157095E-15, 39.00000000000000000 ) ) ;
#68 = SURFACE_SIDE_STYLE ('',( #141 ) ) ;
#69 = DIRECTION ( 'NONE',  ( 1.000000000000000000, 0.0000000000000000000, 0.0000000000000000000 ) ) ;
#70 = VERTEX_POINT ( 'NONE', #306 ) ;
#71 = DIRECTION ( 'NONE',  ( -0.0000000000000000000, -0.0000000000000000000, -1.000000000000000000 ) ) ;
#72 = FACE_BOUND ( 'NONE', #182, .T. ) ;
#73 = AXIS2_PLACEMENT_3D ( 'NONE', #51, #47, #251 ) ;
#74 = CYLINDRICAL_SURFACE ( 'NONE', #340, 0.9499999999999998446 ) ;
#75 = AXIS2_PLACEMENT_3D ( 'NONE', #117, #221, #91 ) ;
#76 = DIRECTION ( 'NONE',  ( 0.0000000000000000000, -0.0000000000000000000, 1.000000000000000000 ) ) ;
#77 = FACE_OUTER_BOUND ( 'NONE', #12, .T. ) ;
#78 = DIRECTION ( 'NONE',  ( 0.0000000000000000000, 0.0000000000000000000, -1.000000000000000000 ) ) ;
#79 = AXIS2_PLACEMENT_3D ( 'NONE', #101, #227, #129 ) ;
#80 = ADVANCED_FACE ( 'NONE', ( #268, #45 ), #87, .T. ) ;
#81 = ORIENTED_EDGE ( 'NONE', *, *, #316, .T. ) ;
#82 = DIRECTION ( 'NONE',  ( -0.0000000000000000000, -0.0000000000000000000, -1.000000000000000000 ) ) ;
#83 = ORIENTED_EDGE ( 'NONE', *, *, #113, .T. ) ;
#84 = VERTEX_POINT ( 'NONE', #162 ) ;
#85 = DIRECTION ( 'NONE',  ( -0.0000000000000000000, -0.0000000000000000000, -1.000000000000000000 ) ) ;
#86 = SURFACE_STYLE_FILL_AREA ( #28 ) ;
#87 = CYLINDRICAL_SURFACE ( 'NONE', #329, 3.249999999999996447 ) ;
#88 = ADVANCED_FACE ( 'NONE', ( #332, #142 ), #13, .T. ) ;
#89 = PRESENTATION_STYLE_ASSIGNMENT (( #63 ) ) ;
#90 = DIRECTION ( 'NONE',  ( 1.000000000000000000, 1.084202172485518855E-16, 0.0000000000000000000 ) ) ;
#91 = DIRECTION ( 'NONE',  ( 1.000000000000000000, 1.084202172485518855E-16, 0.0000000000000000000 ) ) ;
#92 = CARTESIAN_POINT ( 'NONE',  ( -3.162500000000000089, -3.130063245106600167, 39.00000000000000000 ) ) ;
#93 = CIRCLE ( 'NONE', #322, 3.199999999999998845 ) ;
#94 = ORIENTED_EDGE ( 'NONE', *, *, #337, .T. ) ;
#95 = PLANE ( 'NONE',  #52 ) ;
#96 = UNCERTAINTY_MEASURE_WITH_UNIT (LENGTH_MEASURE( 1.000000000000000082E-05 ), #116, 'distance_accuracy_value', 'NONE');
#97 = CYLINDRICAL_SURFACE ( 'NONE', #274, 1.550000000000003153 ) ;
#98 = EDGE_CURVE ( 'NONE', #238, #238, #335, .T. ) ;
#99 = AXIS2_PLACEMENT_3D ( 'NONE', #225, #2, #147 ) ;
#100 = FACE_OUTER_BOUND ( 'NONE', #30, .T. ) ;
#101 = CARTESIAN_POINT ( 'NONE',  ( -3.574999999999999734, 3.538332364033599742, -4.400000000000000355 ) ) ;
#102 = PRODUCT_RELATED_PRODUCT_CATEGORY ( 'part', '', ( #177 ) ) ;
#103 = FACE_BOUND ( 'NONE', #46, .T. ) ;
#104 = CYLINDRICAL_SURFACE ( 'NONE', #21, 3.199999999999998845 ) ;
#105 = CIRCLE ( 'NONE', #48, 3.249999999999996447 ) ;
#106 = DIRECTION ( 'NONE',  ( 0.0000000000000000000, 0.0000000000000000000, -1.000000000000000000 ) ) ;
#107 = ORIENTED_EDGE ( 'NONE', *, *, #220, .T. ) ;
#108 = CARTESIAN_POINT ( 'NONE',  ( -2.808083626737456484E-14, 3.487423841170157095E-15, 31.00000000000000000 ) ) ;
#109 = EDGE_LOOP ( 'NONE', ( #6 ) ) ;
#110 = CONICAL_SURFACE ( 'NONE', #14, 3.500000000000043077, 0.7853981633974482790 ) ;
#111 = DIRECTION ( 'NONE',  ( -1.000000000000000000, 0.0000000000000000000, 0.0000000000000000000 ) ) ;
#112 = ORIENTED_EDGE ( 'NONE', *, *, #316, .F. ) ;
#113 = EDGE_CURVE ( 'NONE', #5, #5, #105, .T. ) ;
#114 = ORIENTED_EDGE ( 'NONE', *, *, #8, .T. ) ;
#115 = APPLICATION_CONTEXT ( 'automotive_design' ) ;
#116 =( LENGTH_UNIT ( ) NAMED_UNIT ( * ) SI_UNIT ( .MILLI., .METRE. ) );
#117 = CARTESIAN_POINT ( 'NONE',  ( 5.355958732078391904E-14, -4.336808689942017736E-16, 30.49999999999992184 ) ) ;
#118 = CARTESIAN_POINT ( 'NONE',  ( -3.250000000000023981, -2.331034670843855438E-15, 2.603891789998150188E-16 ) ) ;
#119 = ORIENTED_EDGE ( 'NONE', *, *, #269, .F. ) ;
#120 = CARTESIAN_POINT ( 'NONE',  ( -4.304282624767452603E-14, -2.204913801867954658E-15, 31.00000000000000000 ) ) ;
#121 = CIRCLE ( 'NONE', #151, 1.550000000000003153 ) ;
#122 = DIRECTION ( 'NONE',  ( 1.000000000000000000, 0.0000000000000000000, 0.0000000000000000000 ) ) ;
#123 = PLANE ( 'NONE',  #79 ) ;
#124 = ADVANCED_FACE ( 'NONE', ( #231, #229, #77 ), #95, .T. ) ;
#125 = DIRECTION ( 'NONE',  ( 0.0000000000000000000, 0.0000000000000000000, 1.000000000000000000 ) ) ;
#126 =( GEOMETRIC_REPRESENTATION_CONTEXT ( 3 ) GLOBAL_UNCERTAINTY_ASSIGNED_CONTEXT ( ( #23 ) ) GLOBAL_UNIT_ASSIGNED_CONTEXT ( ( #265, #33, #205 ) ) REPRESENTATION_CONTEXT ( 'NONE', 'WORKASPACE' ) );
#127 = FACE_OUTER_BOUND ( 'NONE', #222, .T. ) ;
#128 = MECHANICAL_DESIGN_GEOMETRIC_PRESENTATION_REPRESENTATION (  '', ( #188 ), #153 ) ;
#129 = DIRECTION ( 'NONE',  ( 1.000000000000000000, 0.0000000000000000000, 0.0000000000000000000 ) ) ;
#130 = SURFACE_STYLE_USAGE ( .BOTH. , #287 ) ;
#131 = CARTESIAN_POINT ( 'NONE',  ( -3.500000000000086153, -2.204913801867954658E-15, 31.00000000000000000 ) ) ;
#132 = DIRECTION ( 'NONE',  ( 1.000000000000000000, 0.0000000000000000000, 0.0000000000000000000 ) ) ;
#133 = EDGE_LOOP ( 'NONE', ( #184 ) ) ;
#134 = ORIENTED_EDGE ( 'NONE', *, *, #22, .T. ) ;
#135 = FACE_OUTER_BOUND ( 'NONE', #333, .T. ) ;
#136 = ORIENTED_EDGE ( 'NONE', *, *, #308, .T. ) ;
#137 = AXIS2_PLACEMENT_3D ( 'NONE', #334, #223, #69 ) ;
#138 = CARTESIAN_POINT ( 'NONE',  ( 0.4250000000000258571, -1.869684821777203791E-15, 39.00000000000000000 ) ) ;
#139 = ORIENTED_EDGE ( 'NONE', *, *, #31, .F. ) ;
#140 = EDGE_CURVE ( 'NONE', #60, #60, #175, .T. ) ;
#141 = SURFACE_STYLE_FILL_AREA ( #15 ) ;
#142 = FACE_BOUND ( 'NONE', #133, .T. ) ;
#143 = FACE_OUTER_BOUND ( 'NONE', #34, .T. ) ;
#144 = DIRECTION ( 'NONE',  ( 0.0000000000000000000, -0.0000000000000000000, 1.000000000000000000 ) ) ;
#145 = EDGE_LOOP ( 'NONE', ( #94 ) ) ;
#146 = ORIENTED_EDGE ( 'NONE', *, *, #308, .F. ) ;
#147 = DIRECTION ( 'NONE',  ( 1.000000000000000000, 0.0000000000000000000, 0.0000000000000000000 ) ) ;
#148 = ADVANCED_FACE ( 'NONE', ( #53, #127 ), #311, .T. ) ;
#149 = CYLINDRICAL_SURFACE ( 'NONE', #224, 3.249999999999996003 ) ;
#150 = FACE_OUTER_BOUND ( 'NONE', #191, .T. ) ;
#151 = AXIS2_PLACEMENT_3D ( 'NONE', #263, #261, #319 ) ;
#152 = DIRECTION ( 'NONE',  ( 0.0000000000000000000, -0.0000000000000000000, 1.000000000000000000 ) ) ;
#153 =( GEOMETRIC_REPRESENTATION_CONTEXT ( 3 ) GLOBAL_UNCERTAINTY_ASSIGNED_CONTEXT ( ( #96 ) ) GLOBAL_UNIT_ASSIGNED_CONTEXT ( ( #116, #168, #331 ) ) REPRESENTATION_CONTEXT ( 'NONE', 'WORKASPACE' ) );
#154 = CARTESIAN_POINT ( 'NONE',  ( 0.0000000000000000000, 0.0000000000000000000, 2.603891789998150188E-16 ) ) ;
#155 = FACE_OUTER_BOUND ( 'NONE', #41, .T. ) ;
#156 = EDGE_LOOP ( 'NONE', ( #83 ) ) ;
#157 = FACE_OUTER_BOUND ( 'NONE', #156, .T. ) ;
#158 = PRESENTATION_LAYER_ASSIGNMENT (  '', '', ( #192 ) ) ;
#159 = EDGE_LOOP ( 'NONE', ( #146 ) ) ;
#160 =( GEOMETRIC_REPRESENTATION_CONTEXT ( 3 ) GLOBAL_UNCERTAINTY_ASSIGNED_CONTEXT ( ( #282 ) ) GLOBAL_UNIT_ASSIGNED_CONTEXT ( ( #328, #215, #326 ) ) REPRESENTATION_CONTEXT ( 'NONE', 'WORKASPACE' ) );
#161 = CARTESIAN_POINT ( 'NONE',  ( 2.675000000000002487, -2.168404344971008868E-15, 39.00000000000000000 ) ) ;
#162 = CARTESIAN_POINT ( 'NONE',  ( 2.675000000000002487, -2.032315147650029456E-15, 40.00000000000000000 ) ) ;
#163 = PLANE ( 'NONE',  #299 ) ;
#164 = CIRCLE ( 'NONE', #310, 0.9499999999999998446 ) ;
#165 = CARTESIAN_POINT ( 'NONE',  ( 5.355958732078391904E-14, -4.336808689942017736E-16, 0.5000000000000071054 ) ) ;
#166 = APPLICATION_PROTOCOL_DEFINITION ( 'draft international standard', 'automotive_design', 1998, #271 ) ;
#167 = CARTESIAN_POINT ( 'NONE',  ( 0.0000000000000000000, 0.0000000000000000000, 31.00000000000000000 ) ) ;
#168 =( NAMED_UNIT ( * ) PLANE_ANGLE_UNIT ( ) SI_UNIT ( $, .RADIAN. ) );
#169 = CIRCLE ( 'NONE', #305, 1.550000000000003153 ) ;
#170 = PRODUCT_CONTEXT ( 'NONE', #271, 'mechanical' ) ;
#171 = DIRECTION ( 'NONE',  ( -1.000000000000000000, 0.0000000000000000000, 0.0000000000000000000 ) ) ;
#172 = FACE_BOUND ( 'NONE', #214, .T. ) ;
#173 = ADVANCED_FACE ( 'NONE', ( #103, #336 ), #219, .T. ) ;
#174 = CARTESIAN_POINT ( 'NONE',  ( -4.225000000000032507, -3.483896481509999976, 40.00000000000000000 ) ) ;
#175 = CIRCLE ( 'NONE', #99, 3.500000000000040412 ) ;
#176 = CARTESIAN_POINT ( 'NONE',  ( -1.124999999999977351, -1.869684821777203791E-15, 36.00000000000000711 ) ) ;
#177 = PRODUCT ( 'DSD-0262', 'DSD-0262', '', ( #170 ) ) ;
#178 = FACE_OUTER_BOUND ( 'NONE', #321, .T. ) ;
#179 = DIRECTION ( 'NONE',  ( 0.0000000000000000000, 0.0000000000000000000, 1.000000000000000000 ) ) ;
#180 = CIRCLE ( 'NONE', #73, 3.199999999999998845 ) ;
#181 = CARTESIAN_POINT ( 'NONE',  ( 4.000000000000062172, 6.740754805355325486E-30, 0.5000000000000071054 ) ) ;
#182 = EDGE_LOOP ( 'NONE', ( #112 ) ) ;
#183 = ADVANCED_FACE ( 'NONE', ( #204, #72 ), #312, .T. ) ;
#184 = ORIENTED_EDGE ( 'NONE', *, *, #337, .F. ) ;
#185 = FACE_BOUND ( 'NONE', #196, .T. ) ;
#186 = AXIS2_PLACEMENT_3D ( 'NONE', #309, #283, #25 ) ;
#187 = ORIENTED_EDGE ( 'NONE', *, *, #98, .T. ) ;
#188 = STYLED_ITEM ( 'NONE', ( #89 ), #24 ) ;
#189 = DIRECTION ( 'NONE',  ( 0.0000000000000000000, 0.0000000000000000000, 1.000000000000000000 ) ) ;
#190 = CARTESIAN_POINT ( 'NONE',  ( 3.249999999999967581, -2.331034670843855438E-15, -4.400000000000000355 ) ) ;
#191 = EDGE_LOOP ( 'NONE', ( #18 ) ) ;
#192 = STYLED_ITEM ( 'NONE', ( #315 ), #264 ) ;
#193 = PRODUCT_DEFINITION_FORMATION_WITH_SPECIFIED_SOURCE ( 'ANY', '', #177, .NOT_KNOWN. ) ;
#194 = DIRECTION ( 'NONE',  ( 1.000000000000000000, 0.0000000000000000000, 0.0000000000000000000 ) ) ;
#195 = DIRECTION ( 'NONE',  ( 0.0000000000000000000, 0.0000000000000000000, 1.000000000000000000 ) ) ;
#196 = EDGE_LOOP ( 'NONE', ( #61 ) ) ;
#197 = AXIS2_PLACEMENT_3D ( 'NONE', #165, #144, #90 ) ;
#198 = ADVANCED_FACE ( 'NONE', ( #278, #178 ), #74, .F. ) ;
#199 = DIRECTION ( 'NONE',  ( -1.000000000000000000, 0.0000000000000000000, 0.0000000000000000000 ) ) ;
#200 = DIRECTION ( 'NONE',  ( 1.000000000000000000, 0.0000000000000000000, 0.0000000000000000000 ) ) ;
#201 = AXIS2_PLACEMENT_3D ( 'NONE', #249, #245, #194 ) ;
#202 = CARTESIAN_POINT ( 'NONE',  ( 1.725000000000002531, -2.032315147650029456E-15, 39.00000000000000000 ) ) ;
#203 = DIRECTION ( 'NONE',  ( 0.0000000000000000000, -0.0000000000000000000, 1.000000000000000000 ) ) ;
#204 = FACE_OUTER_BOUND ( 'NONE', #297, .T. ) ;
#205 =( NAMED_UNIT ( * ) SI_UNIT ( $, .STERADIAN. ) SOLID_ANGLE_UNIT ( ) );
#206 = VERTEX_POINT ( 'NONE', #317 ) ;
#207 = ORIENTED_EDGE ( 'NONE', *, *, #113, .F. ) ;
#208 = DIRECTION ( 'NONE',  ( -1.000000000000000000, 0.0000000000000000000, 0.0000000000000000000 ) ) ;
#209 = ORIENTED_EDGE ( 'NONE', *, *, #31, .T. ) ;
#210 = CARTESIAN_POINT ( 'NONE',  ( -2.829767670187166573E-14, -2.331034670843855438E-15, 2.603891789998150188E-16 ) ) ;
#211 = AXIS2_PLACEMENT_3D ( 'NONE', #120, #71, #171 ) ;
#212 = ORIENTED_EDGE ( 'NONE', *, *, #140, .F. ) ;
#213 = CARTESIAN_POINT ( 'NONE',  ( -1.124999999999977351, -1.869684821777203791E-15, 39.00000000000000000 ) ) ;
#214 = EDGE_LOOP ( 'NONE', ( #20 ) ) ;
#215 =( NAMED_UNIT ( * ) PLANE_ANGLE_UNIT ( ) SI_UNIT ( $, .RADIAN. ) );
#216 = DIRECTION ( 'NONE',  ( -1.000000000000000000, 0.0000000000000000000, 0.0000000000000000000 ) ) ;
#217 = SHAPE_DEFINITION_REPRESENTATION ( #294, #24 ) ;
#218 = AXIS2_PLACEMENT_3D ( 'NONE', #154, #78, #286 ) ;
#219 = CONICAL_SURFACE ( 'NONE', #27, 3.500000000000041300, 0.7853981633974487231 ) ;
#220 = EDGE_CURVE ( 'NONE', #206, #206, #180, .T. ) ;
#221 = DIRECTION ( 'NONE',  ( -0.0000000000000000000, 0.0000000000000000000, -1.000000000000000000 ) ) ;
#222 = EDGE_LOOP ( 'NONE', ( #187 ) ) ;
#223 = DIRECTION ( 'NONE',  ( -0.0000000000000000000, -0.0000000000000000000, -1.000000000000000000 ) ) ;
#224 = AXIS2_PLACEMENT_3D ( 'NONE', #252, #152, #339 ) ;
#225 = CARTESIAN_POINT ( 'NONE',  ( -4.141652298894626938E-14, -4.336808689942017736E-16, -8.673617379884028570E-16 ) ) ;
#226 = PRODUCT_DEFINITION_CONTEXT ( 'detailed design', #115, 'design' ) ;
#227 = DIRECTION ( 'NONE',  ( 0.0000000000000000000, 0.0000000000000000000, -1.000000000000000000 ) ) ;
#228 = ADVANCED_FACE ( 'NONE', ( #150 ), #284, .T. ) ;
#229 = FACE_BOUND ( 'NONE', #38, .T. ) ;
#230 = DIRECTION ( 'NONE',  ( 0.0000000000000000000, 0.0000000000000000000, 1.000000000000000000 ) ) ;
#231 = FACE_BOUND ( 'NONE', #159, .T. ) ;
#232 = CARTESIAN_POINT ( 'NONE',  ( -4.119968255444916849E-15, 4.336808689942017736E-16, 40.00000000000000000 ) ) ;
#233 = ADVANCED_FACE ( 'NONE', ( #253 ), #123, .T. ) ;
#234 = AXIS2_PLACEMENT_3D ( 'NONE', #307, #76, #313 ) ;
#235 = DIRECTION ( 'NONE',  ( 1.000000000000000000, 0.0000000000000000000, 0.0000000000000000000 ) ) ;
#236 = VERTEX_POINT ( 'NONE', #181 ) ;
#237 = EDGE_LOOP ( 'NONE', ( #134 ) ) ;
#238 = VERTEX_POINT ( 'NONE', #37 ) ;
#239 = ORIENTED_EDGE ( 'NONE', *, *, #275, .T. ) ;
#240 = CARTESIAN_POINT ( 'NONE',  ( -3.250000000000024425, 3.487423841170157095E-15, 39.00000000000000000 ) ) ;
#241 = CIRCLE ( 'NONE', #285, 3.249999999999996003 ) ;
#242 = EDGE_LOOP ( 'NONE', ( #81 ) ) ;
#243 = VERTEX_POINT ( 'NONE', #11 ) ;
#244 = EDGE_LOOP ( 'NONE', ( #114 ) ) ;
#245 = DIRECTION ( 'NONE',  ( -0.0000000000000000000, 0.0000000000000000000, -1.000000000000000000 ) ) ;
#246 = ADVANCED_FACE ( 'NONE', ( #100, #338 ), #97, .F. ) ;
#247 = FILL_AREA_STYLE_COLOUR ( '', #292 ) ;
#248 = CIRCLE ( 'NONE', #211, 3.500000000000043521 ) ;
#249 = CARTESIAN_POINT ( 'NONE',  ( -2.829767670187166573E-14, -2.331034670843855438E-15, -4.400000000000000355 ) ) ;
#250 = ORIENTED_EDGE ( 'NONE', *, *, #269, .T. ) ;
#251 = DIRECTION ( 'NONE',  ( 1.000000000000000000, -1.355252715606881036E-16, -2.168404344971009657E-15 ) ) ;
#252 = CARTESIAN_POINT ( 'NONE',  ( -2.829767670187166573E-14, -2.331034670843855438E-15, -4.400000000000000355 ) ) ;
#253 = FACE_OUTER_BOUND ( 'NONE', #237, .T. ) ;
#254 = CIRCLE ( 'NONE', #137, 0.9499999999999998446 ) ;
#255 = FILL_AREA_STYLE_COLOUR ( '', #260 ) ;
#256 = CARTESIAN_POINT ( 'NONE',  ( 1.725000000000002531, -2.032315147650029456E-15, 36.00000000000000711 ) ) ;
#257 = ADVANCED_FACE ( 'NONE', ( #1, #49 ), #149, .T. ) ;
#258 = VERTEX_POINT ( 'NONE', #190 ) ;
#259 = ORIENTED_EDGE ( 'NONE', *, *, #8, .F. ) ;
#260 = COLOUR_RGB ( '',0.7921568627450980005, 0.8196078431372548767, 0.9333333333333333481 ) ;
#261 = DIRECTION ( 'NONE',  ( 0.0000000000000000000, 0.0000000000000000000, 1.000000000000000000 ) ) ;
#262 = ORIENTED_EDGE ( 'NONE', *, *, #281, .F. ) ;
#263 = CARTESIAN_POINT ( 'NONE',  ( -1.124999999999977351, -1.869684821777203791E-15, 40.00000000000000000 ) ) ;
#264 = MANIFOLD_SOLID_BREP ( 'Surface-Fill2', #4 ) ;
#265 =( LENGTH_UNIT ( ) NAMED_UNIT ( * ) SI_UNIT ( .MILLI., .METRE. ) );
#266 = VERTEX_POINT ( 'NONE', #118 ) ;
#267 = CIRCLE ( 'NONE', #62, 3.249999999999996447 ) ;
#268 = FACE_OUTER_BOUND ( 'NONE', #145, .T. ) ;
#269 = EDGE_CURVE ( 'NONE', #293, #293, #164, .T. ) ;
#270 = DIRECTION ( 'NONE',  ( -0.0000000000000000000, 0.0000000000000000000, 1.000000000000000000 ) ) ;
#271 = APPLICATION_CONTEXT ( 'automotive_design' ) ;
#272 = APPLICATION_PROTOCOL_DEFINITION ( 'draft international standard', 'automotive_design', 1998, #115 ) ;
#273 = DIRECTION ( 'NONE',  ( 0.0000000000000000000, 0.0000000000000000000, 1.000000000000000000 ) ) ;
#274 = AXIS2_PLACEMENT_3D ( 'NONE', #176, #230, #26 ) ;
#275 = EDGE_CURVE ( 'NONE', #35, #35, #93, .T. ) ;
#276 = FACE_OUTER_BOUND ( 'NONE', #109, .T. ) ;
#277 = CARTESIAN_POINT ( 'NONE',  ( -4.304282624767452603E-14, -2.204913801867954658E-15, 31.00000000000000000 ) ) ;
#278 = FACE_OUTER_BOUND ( 'NONE', #56, .T. ) ;
#279 = MECHANICAL_DESIGN_GEOMETRIC_PRESENTATION_REPRESENTATION (  '', ( #192 ), #126 ) ;
#280 = CARTESIAN_POINT ( 'NONE',  ( -4.141652298894626938E-14, -4.336808689942017736E-16, 0.0000000000000000000 ) ) ;
#281 = EDGE_CURVE ( 'NONE', #17, #17, #169, .T. ) ;
#282 = UNCERTAINTY_MEASURE_WITH_UNIT (LENGTH_MEASURE( 1.000000000000000082E-05 ), #328, 'distance_accuracy_value', 'NONE');
#283 = DIRECTION ( 'NONE',  ( 0.0000000000000000000, 0.0000000000000000000, 1.000000000000000000 ) ) ;
#284 = PLANE ( 'NONE',  #186 ) ;
#285 = AXIS2_PLACEMENT_3D ( 'NONE', #210, #106, #58 ) ;
#286 = DIRECTION ( 'NONE',  ( -1.000000000000000000, 0.0000000000000000000, -0.0000000000000000000 ) ) ;
#287 = SURFACE_SIDE_STYLE ('',( #86 ) ) ;
#288 = ORIENTED_EDGE ( 'NONE', *, *, #22, .F. ) ;
#289 = DIRECTION ( 'NONE',  ( 0.0000000000000000000, 0.0000000000000000000, 1.000000000000000000 ) ) ;
#290 = EDGE_LOOP ( 'NONE', ( #318 ) ) ;
#291 = CIRCLE ( 'NONE', #197, 4.000000000000008882 ) ;
#292 = COLOUR_RGB ( '',0.7921568627450980005, 0.8196078431372548767, 0.9333333333333333481 ) ;
#293 = VERTEX_POINT ( 'NONE', #161 ) ;
#294 = PRODUCT_DEFINITION_SHAPE ( 'NONE', 'NONE',  #302 ) ;
#295 = EDGE_LOOP ( 'NONE', ( #262 ) ) ;
#296 = VERTEX_POINT ( 'NONE', #131 ) ;
#297 = EDGE_LOOP ( 'NONE', ( #212 ) ) ;
#298 = ADVANCED_FACE ( 'NONE', ( #185, #157 ), #163, .T. ) ;
#299 = AXIS2_PLACEMENT_3D ( 'NONE', #325, #289, #132 ) ;
#300 = DIRECTION ( 'NONE',  ( -0.0000000000000000000, -0.0000000000000000000, -1.000000000000000000 ) ) ;
#301 = CARTESIAN_POINT ( 'NONE',  ( -2.808083626737456484E-14, 3.487423841170157095E-15, 39.00000000000000000 ) ) ;
#302 = PRODUCT_DEFINITION ( 'UNKNOWN', '', #193, #226 ) ;
#303 = DIRECTION ( 'NONE',  ( 1.000000000000000000, 0.0000000000000000000, 0.0000000000000000000 ) ) ;
#304 = PLANE ( 'NONE',  #57 ) ;
#305 = AXIS2_PLACEMENT_3D ( 'NONE', #213, #54, #9 ) ;
#306 = CARTESIAN_POINT ( 'NONE',  ( 0.4250000000000258571, -1.734723475976807094E-15, 40.00000000000000000 ) ) ;
#307 = CARTESIAN_POINT ( 'NONE',  ( 5.355958732078391904E-14, -4.336808689942017736E-16, 0.0000000000000000000 ) ) ;
#308 = EDGE_CURVE ( 'NONE', #70, #70, #121, .T. ) ;
#309 = CARTESIAN_POINT ( 'NONE',  ( -4.224999999999999645, -3.130063245106600167, 39.00000000000000000 ) ) ;
#310 = AXIS2_PLACEMENT_3D ( 'NONE', #202, #82, #3 ) ;
#311 = CYLINDRICAL_SURFACE ( 'NONE', #234, 4.000000000000008882 ) ;
#312 = PLANE ( 'NONE',  #218 ) ;
#313 = DIRECTION ( 'NONE',  ( 1.000000000000000000, 0.0000000000000000000, 0.0000000000000000000 ) ) ;
#314 = AXIS2_PLACEMENT_3D ( 'NONE', #167, #270, #16 ) ;
#315 = PRESENTATION_STYLE_ASSIGNMENT (( #130 ) ) ;
#316 = EDGE_CURVE ( 'NONE', #266, #266, #241, .T. ) ;
#317 = CARTESIAN_POINT ( 'NONE',  ( 3.199999999999994404, 0.0000000000000000000, 38.99999999999999289 ) ) ;
#318 = ORIENTED_EDGE ( 'NONE', *, *, #55, .F. ) ;
#319 = DIRECTION ( 'NONE',  ( 1.000000000000000000, 8.707183600025572660E-17, 0.0000000000000000000 ) ) ;
#320 = ADVANCED_FACE ( 'NONE', ( #155, #135 ), #104, .T. ) ;
#321 = EDGE_LOOP ( 'NONE', ( #250 ) ) ;
#322 = AXIS2_PLACEMENT_3D ( 'NONE', #232, #189, #208 ) ;
#323 = CARTESIAN_POINT ( 'NONE',  ( -4.119968255444916849E-15, 4.336808689942017736E-16, 40.00000000000000000 ) ) ;
#324 = EDGE_LOOP ( 'NONE', ( #259 ) ) ;
#325 = CARTESIAN_POINT ( 'NONE',  ( -6.499999999999968914, -5.629165124598914716, 39.00000000000000000 ) ) ;
#326 =( NAMED_UNIT ( * ) SI_UNIT ( $, .STERADIAN. ) SOLID_ANGLE_UNIT ( ) );
#327 = DIRECTION ( 'NONE',  ( 1.000000000000000000, 0.0000000000000000000, 0.0000000000000000000 ) ) ;
#328 =( LENGTH_UNIT ( ) NAMED_UNIT ( * ) SI_UNIT ( .MILLI., .METRE. ) );
#329 = AXIS2_PLACEMENT_3D ( 'NONE', #67, #300, #64 ) ;
#330 = EDGE_LOOP ( 'NONE', ( #207 ) ) ;
#331 =( NAMED_UNIT ( * ) SI_UNIT ( $, .STERADIAN. ) SOLID_ANGLE_UNIT ( ) );
#332 = FACE_OUTER_BOUND ( 'NONE', #290, .T. ) ;
#333 = EDGE_LOOP ( 'NONE', ( #107 ) ) ;
#334 = CARTESIAN_POINT ( 'NONE',  ( 1.725000000000002531, -2.032315147650029456E-15, 40.00000000000000000 ) ) ;
#335 = CIRCLE ( 'NONE', #75, 4.000000000000008882 ) ;
#336 = FACE_OUTER_BOUND ( 'NONE', #324, .T. ) ;
#337 = EDGE_CURVE ( 'NONE', #243, #243, #267, .T. ) ;
#338 = FACE_OUTER_BOUND ( 'NONE', #295, .T. ) ;
#339 = DIRECTION ( 'NONE',  ( 1.000000000000000000, 0.0000000000000000000, 0.0000000000000000000 ) ) ;
#340 = AXIS2_PLACEMENT_3D ( 'NONE', #256, #125, #122 ) ;
ENDSEC;
END-ISO-10303-21;
