ISO-10303-21;
HEADER;
FILE_DESCRIPTION (( 'STEP AP214' ),
    '1' );
FILE_NAME ('DSD-0275.STEP',
    '2020-09-23T13:20:22',
    ( '' ),
    ( '' ),
    'SwSTEP 2.0',
    'SolidWorks 2019',
    '' );
FILE_SCHEMA (( 'AUTOMOTIVE_DESIGN' ));
ENDSEC;

DATA;
#1 = FACE_BOUND ( 'NONE', #195, .T. ) ;
#2 = CARTESIAN_POINT ( 'NONE',  ( -2.099999999999970335, 0.0000000000000000000, 36.00000000000000000 ) ) ;
#3 = AXIS2_PLACEMENT_3D ( 'NONE', #29, #152, #261 ) ;
#4 = FACE_OUTER_BOUND ( 'NONE', #140, .T. ) ;
#5 = EDGE_CURVE ( 'NONE', #132, #132, #108, .T. ) ;
#6 = UNCERTAINTY_MEASURE_WITH_UNIT (LENGTH_MEASURE( 1.000000000000000082E-05 ), #127, 'distance_accuracy_value', 'NONE');
#7 = PLANE ( 'NONE',  #241 ) ;
#8 = CARTESIAN_POINT ( 'NONE',  ( 2.249999999999998224, -6.197299617927140978E-15, 37.00000000000000000 ) ) ;
#9 = CYLINDRICAL_SURFACE ( 'NONE', #163, 2.150000000000010125 ) ;
#10 = CARTESIAN_POINT ( 'NONE',  ( -3.565707097776844821E-14, 5.299999999970276932, 26.99999999998681233 ) ) ;
#11 = DIRECTION ( 'NONE',  ( 1.000000000000000000, 0.0000000000000000000, -0.0000000000000000000 ) ) ;
#12 = VERTEX_POINT ( 'NONE', #276 ) ;
#13 = ORIENTED_EDGE ( 'NONE', *, *, #251, .F. ) ;
#14 = SURFACE_SIDE_STYLE ('',( #280 ) ) ;
#15 = EDGE_CURVE ( 'NONE', #12, #12, #283, .T. ) ;
#16 = AXIS2_PLACEMENT_3D ( 'NONE', #211, #333, #272 ) ;
#17 = EDGE_LOOP ( 'NONE', ( #169 ) ) ;
#18 = EDGE_LOOP ( 'NONE', ( #13 ) ) ;
#19 = EDGE_LOOP ( 'NONE', ( #20 ) ) ;
#20 = ORIENTED_EDGE ( 'NONE', *, *, #222, .F. ) ;
#21 = CONICAL_SURFACE ( 'NONE', #43, 5.999999999878144585, 0.7853981633759525849 ) ;
#22 = DIRECTION ( 'NONE',  ( 0.0000000000000000000, 0.0000000000000000000, -1.000000000000000000 ) ) ;
#23 = FACE_OUTER_BOUND ( 'NONE', #285, .T. ) ;
#24 = PLANE ( 'NONE',  #93 ) ;
#25 = CARTESIAN_POINT ( 'NONE',  ( 3.200006739894280638, 0.9619793736060050504, 36.00000000000000711 ) ) ;
#26 = DIRECTION ( 'NONE',  ( -0.0000000000000000000, -0.0000000000000000000, 1.000000000000000000 ) ) ;
#27 = AXIS2_PLACEMENT_3D ( 'NONE', #59, #375, #175 ) ;
#28 = PRESENTATION_LAYER_ASSIGNMENT (  '', '', ( #196 ) ) ;
#29 = CARTESIAN_POINT ( 'NONE',  ( -2.099999999999970335, 0.0000000000000000000, 37.00000000000000000 ) ) ;
#30 = EDGE_LOOP ( 'NONE', ( #49 ) ) ;
#31 = CARTESIAN_POINT ( 'NONE',  ( 3.200000000000000178, -6.197299617927140978E-15, 36.00000000000000711 ) ) ;
#32 = UNCERTAINTY_MEASURE_WITH_UNIT (LENGTH_MEASURE( 1.000000000000000082E-05 ), #267, 'distance_accuracy_value', 'NONE');
#33 = EDGE_CURVE ( 'NONE', #69, #69, #142, .T. ) ;
#34 = PLANE ( 'NONE',  #362 ) ;
#35 = AXIS2_PLACEMENT_3D ( 'NONE', #167, #309, #250 ) ;
#36 = PLANE ( 'NONE',  #321 ) ;
#37 = VERTEX_POINT ( 'NONE', #129 ) ;
#38 = DIRECTION ( 'NONE',  ( 1.360567432176258591E-16, 2.551063935306511869E-16, -1.000000000000000000 ) ) ;
#39 =( NAMED_UNIT ( * ) SI_UNIT ( $, .STERADIAN. ) SOLID_ANGLE_UNIT ( ) );
#40 = CARTESIAN_POINT ( 'NONE',  ( -3.330669073875470252E-14, 6.765421556309539780E-16, 0.6999999999999999556 ) ) ;
#41 = AXIS2_PLACEMENT_3D ( 'NONE', #123, #57, #342 ) ;
#42 = VERTEX_POINT ( 'NONE', #363 ) ;
#43 = AXIS2_PLACEMENT_3D ( 'NONE', #122, #38, #361 ) ;
#44 = VERTEX_POINT ( 'NONE', #8 ) ;
#45 = FILL_AREA_STYLE ('',( #310 ) ) ;
#46 = EDGE_CURVE ( 'NONE', #37, #37, #72, .T. ) ;
#47 = EDGE_LOOP ( 'NONE', ( #340 ) ) ;
#48 = AXIS2_PLACEMENT_3D ( 'NONE', #83, #266, #200 ) ;
#49 = ORIENTED_EDGE ( 'NONE', *, *, #184, .F. ) ;
#50 = PRODUCT_CONTEXT ( 'NONE', #121, 'mechanical' ) ;
#51 = EDGE_LOOP ( 'NONE', ( #105 ) ) ;
#52 = EDGE_LOOP ( 'NONE', ( #235 ) ) ;
#53 = ADVANCED_FACE ( 'NONE', ( #260, #377 ), #327, .T. ) ;
#54 = CARTESIAN_POINT ( 'NONE',  ( -6.068224595034980075E-06, 5.264453709918000435, -0.5000000000000000000 ) ) ;
#55 = CIRCLE ( 'NONE', #16, 5.250000000000000000 ) ;
#56 = DIRECTION ( 'NONE',  ( 0.0000000000000000000, 1.000000000000000000, 0.0000000000000000000 ) ) ;
#57 = DIRECTION ( 'NONE',  ( -0.0000000000000000000, -0.0000000000000000000, -1.000000000000000000 ) ) ;
#58 = DIRECTION ( 'NONE',  ( 1.000000000000000000, 0.0000000000000000000, -4.517509052068580935E-16 ) ) ;
#59 = CARTESIAN_POINT ( 'NONE',  ( -2.099999999999970335, 0.0000000000000000000, 41.99999999999999289 ) ) ;
#60 = FACE_OUTER_BOUND ( 'NONE', #315, .T. ) ;
#61 = DIRECTION ( 'NONE',  ( 0.0000000000000000000, 0.0000000000000000000, -1.000000000000000000 ) ) ;
#62 = AXIS2_PLACEMENT_3D ( 'NONE', #155, #146, #295 ) ;
#63 = DIRECTION ( 'NONE',  ( 0.0000000000000000000, 0.0000000000000000000, 1.000000000000000000 ) ) ;
#64 = DIRECTION ( 'NONE',  ( 0.0000000000000000000, 0.0000000000000000000, 1.000000000000000000 ) ) ;
#65 = ADVANCED_FACE ( 'NONE', ( #325 ), #24, .T. ) ;
#66 = PRODUCT ( 'DSD-0275', 'DSD-0275', '', ( #50 ) ) ;
#67 = VERTEX_POINT ( 'NONE', #159 ) ;
#68 = CYLINDRICAL_SURFACE ( 'NONE', #202, 0.9500000000000020650 ) ;
#69 = VERTEX_POINT ( 'NONE', #188 ) ;
#70 = FACE_OUTER_BOUND ( 'NONE', #257, .T. ) ;
#71 = FACE_OUTER_BOUND ( 'NONE', #52, .T. ) ;
#72 = CIRCLE ( 'NONE', #116, 5.250000000000000000 ) ;
#73 = EDGE_CURVE ( 'NONE', #101, #101, #336, .T. ) ;
#74 = EDGE_LOOP ( 'NONE', ( #84 ) ) ;
#75 = DIRECTION ( 'NONE',  ( 1.000000000000000000, 0.0000000000000000000, 0.0000000000000000000 ) ) ;
#76 = ORIENTED_EDGE ( 'NONE', *, *, #15, .T. ) ;
#77 = AXIS2_PLACEMENT_3D ( 'NONE', #349, #26, #87 ) ;
#78 = AXIS2_PLACEMENT_3D ( 'NONE', #206, #350, #348 ) ;
#79 = EDGE_LOOP ( 'NONE', ( #171 ) ) ;
#80 = DIRECTION ( 'NONE',  ( 0.0000000000000000000, 0.0000000000000000000, 1.000000000000000000 ) ) ;
#81 = EDGE_LOOP ( 'NONE', ( #339 ) ) ;
#82 = DIRECTION ( 'NONE',  ( 0.0000000000000000000, 0.0000000000000000000, 1.000000000000000000 ) ) ;
#83 = CARTESIAN_POINT ( 'NONE',  ( -2.099999999999970335, 0.0000000000000000000, 41.99999999999999289 ) ) ;
#84 = ORIENTED_EDGE ( 'NONE', *, *, #85, .F. ) ;
#85 = EDGE_CURVE ( 'NONE', #95, #95, #149, .T. ) ;
#86 = CYLINDRICAL_SURFACE ( 'NONE', #78, 5.250000000000000000 ) ;
#87 = DIRECTION ( 'NONE',  ( -1.000000000000000000, 0.0000000000000000000, 0.0000000000000000000 ) ) ;
#88 = FACE_OUTER_BOUND ( 'NONE', #372, .T. ) ;
#89 = DIRECTION ( 'NONE',  ( 1.000000000000000000, 0.0000000000000000000, -0.0000000000000000000 ) ) ;
#90 = DIRECTION ( 'NONE',  ( -1.000000000000000000, 0.0000000000000000000, 0.0000000000000000000 ) ) ;
#91 = FACE_OUTER_BOUND ( 'NONE', #47, .T. ) ;
#92 = MECHANICAL_DESIGN_GEOMETRIC_PRESENTATION_REPRESENTATION (  '', ( #172 ), #233 ) ;
#93 = AXIS2_PLACEMENT_3D ( 'NONE', #54, #22, #147 ) ;
#94 = CIRCLE ( 'NONE', #48, 2.149999999999999911 ) ;
#95 = VERTEX_POINT ( 'NONE', #137 ) ;
#96 = DIRECTION ( 'NONE',  ( 1.000000000000000000, 0.0000000000000000000, 0.0000000000000000000 ) ) ;
#97 = APPLICATION_PROTOCOL_DEFINITION ( 'draft international standard', 'automotive_design', 1998, #121 ) ;
#98 = FACE_OUTER_BOUND ( 'NONE', #373, .T. ) ;
#99 = CARTESIAN_POINT ( 'NONE',  ( -6.000000000000032863, 6.765421556309539780E-16, 0.6999999999999979572 ) ) ;
#100 = EDGE_CURVE ( 'NONE', #365, #365, #245, .T. ) ;
#101 = VERTEX_POINT ( 'NONE', #303 ) ;
#102 = AXIS2_PLACEMENT_3D ( 'NONE', #359, #302, #275 ) ;
#103 = EDGE_LOOP ( 'NONE', ( #259 ) ) ;
#104 = VERTEX_POINT ( 'NONE', #217 ) ;
#105 = ORIENTED_EDGE ( 'NONE', *, *, #73, .T. ) ;
#106 = ORIENTED_EDGE ( 'NONE', *, *, #251, .T. ) ;
#107 = MANIFOLD_SOLID_BREP ( 'Cut-Extrude3', #226 ) ;
#108 = CIRCLE ( 'NONE', #41, 5.224999999999999645 ) ;
#109 = AXIS2_PLACEMENT_3D ( 'NONE', #31, #231, #379 ) ;
#110 = EDGE_LOOP ( 'NONE', ( #254 ) ) ;
#111 = CARTESIAN_POINT ( 'NONE',  ( 1.665334536937730077E-14, 1.967176421757700034E-15, 36.00000000000000711 ) ) ;
#112 = CARTESIAN_POINT ( 'NONE',  ( 2.220446049250310241E-14, -1.383268499743910079E-14, -0.5500000000000000444 ) ) ;
#113 = ORIENTED_EDGE ( 'NONE', *, *, #240, .T. ) ;
#114 = EDGE_CURVE ( 'NONE', #161, #161, #246, .T. ) ;
#115 = CARTESIAN_POINT ( 'NONE',  ( -0.0003396294620905400234, 5.313061659313540019, 37.00000000000000000 ) ) ;
#116 = AXIS2_PLACEMENT_3D ( 'NONE', #181, #82, #177 ) ;
#117 = CARTESIAN_POINT ( 'NONE',  ( -3.552414101239077279E-14, 1.110258783476158890E-14, 26.29999999999199645 ) ) ;
#118 = AXIS2_PLACEMENT_3D ( 'NONE', #112, #182, #148 ) ;
#119 = PLANE ( 'NONE',  #265 ) ;
#120 = FILL_AREA_STYLE_COLOUR ( '', #174 ) ;
#121 = APPLICATION_CONTEXT ( 'automotive_design' ) ;
#122 = CARTESIAN_POINT ( 'NONE',  ( -3.556183125752454544E-14, 1.105886215935214523E-14, 26.30000000004883987 ) ) ;
#123 = CARTESIAN_POINT ( 'NONE',  ( 1.665334536937730077E-14, 1.967176421757700034E-15, 27.00000000000000000 ) ) ;
#124 = DIRECTION ( 'NONE',  ( 1.000000000000000000, 0.0000000000000000000, 0.0000000000000000000 ) ) ;
#125 = FACE_OUTER_BOUND ( 'NONE', #17, .T. ) ;
#126 = FACE_OUTER_BOUND ( 'NONE', #141, .T. ) ;
#127 =( LENGTH_UNIT ( ) NAMED_UNIT ( * ) SI_UNIT ( .MILLI., .METRE. ) );
#128 = PLANE ( 'NONE',  #186 ) ;
#129 = CARTESIAN_POINT ( 'NONE',  ( 5.250000000000003553, -1.967176421757700034E-15, 37.00000000000000000 ) ) ;
#130 = CYLINDRICAL_SURFACE ( 'NONE', #102, 5.224999999999999645 ) ;
#131 =( GEOMETRIC_REPRESENTATION_CONTEXT ( 3 ) GLOBAL_UNCERTAINTY_ASSIGNED_CONTEXT ( ( #300 ) ) GLOBAL_UNIT_ASSIGNED_CONTEXT ( ( #164, #213, #39 ) ) REPRESENTATION_CONTEXT ( 'NONE', 'WORKASPACE' ) );
#132 = VERTEX_POINT ( 'NONE', #305 ) ;
#133 = APPLICATION_CONTEXT ( 'automotive_design' ) ;
#134 = ADVANCED_BREP_SHAPE_REPRESENTATION ( 'DSD-0275', ( #107, #346 ), #131 ) ;
#135 = CARTESIAN_POINT ( 'NONE',  ( 5.299999999983668886, 1.059988323966746751E-14, 5.684330140557264504E-11 ) ) ;
#136 = EDGE_LOOP ( 'NONE', ( #337 ) ) ;
#137 = CARTESIAN_POINT ( 'NONE',  ( 0.7753961525412901290, 0.0000000000000000000, 41.99999999999999289 ) ) ;
#138 = CIRCLE ( 'NONE', #62, 0.9500000000000020650 ) ;
#139 = ORIENTED_EDGE ( 'NONE', *, *, #33, .T. ) ;
#140 = EDGE_LOOP ( 'NONE', ( #345 ) ) ;
#141 = EDGE_LOOP ( 'NONE', ( #76 ) ) ;
#142 = CIRCLE ( 'NONE', #281, 5.200000000000001066 ) ;
#143 = ORIENTED_EDGE ( 'NONE', *, *, #100, .F. ) ;
#144 = ADVANCED_FACE ( 'NONE', ( #23, #355 ), #183, .T. ) ;
#145 = ORIENTED_EDGE ( 'NONE', *, *, #114, .F. ) ;
#146 = DIRECTION ( 'NONE',  ( 0.0000000000000000000, 0.0000000000000000000, -1.000000000000000000 ) ) ;
#147 = DIRECTION ( 'NONE',  ( -1.000000000000000000, 0.0000000000000000000, -0.0000000000000000000 ) ) ;
#148 = DIRECTION ( 'NONE',  ( -1.000000000000000000, 0.0000000000000000000, 0.0000000000000000000 ) ) ;
#149 = CIRCLE ( 'NONE', #27, 2.875396152541260353 ) ;
#150 = PRESENTATION_STYLE_ASSIGNMENT (( #204 ) ) ;
#151 = AXIS2_PLACEMENT_3D ( 'NONE', #236, #208, #56 ) ;
#152 = DIRECTION ( 'NONE',  ( 0.0000000000000000000, 0.0000000000000000000, 1.000000000000000000 ) ) ;
#153 = DIRECTION ( 'NONE',  ( 1.000000000000000000, 0.0000000000000000000, 0.0000000000000000000 ) ) ;
#154 = DIRECTION ( 'NONE',  ( -0.0000000000000000000, -0.0000000000000000000, -1.000000000000000000 ) ) ;
#155 = CARTESIAN_POINT ( 'NONE',  ( 3.200000000000000178, -6.197299617927140978E-15, 37.00000000000000000 ) ) ;
#156 = CIRCLE ( 'NONE', #35, 6.000000000000000000 ) ;
#157 = FACE_OUTER_BOUND ( 'NONE', #30, .T. ) ;
#158 = ADVANCED_FACE ( 'NONE', ( #60, #178 ), #86, .T. ) ;
#159 = CARTESIAN_POINT ( 'NONE',  ( 0.05000000000002961797, 0.0000000000000000000, 41.99999999999999289 ) ) ;
#160 = FACE_OUTER_BOUND ( 'NONE', #19, .T. ) ;
#161 = VERTEX_POINT ( 'NONE', #135 ) ;
#162 = FACE_OUTER_BOUND ( 'NONE', #136, .T. ) ;
#163 = AXIS2_PLACEMENT_3D ( 'NONE', #243, #273, #96 ) ;
#164 =( LENGTH_UNIT ( ) NAMED_UNIT ( * ) SI_UNIT ( .MILLI., .METRE. ) );
#165 = CARTESIAN_POINT ( 'NONE',  ( 0.9500000000000293765, 0.0000000000000000000, 37.00000000000000000 ) ) ;
#166 = EDGE_LOOP ( 'NONE', ( #145 ) ) ;
#167 = CARTESIAN_POINT ( 'NONE',  ( -3.330669073875470252E-14, 6.765421556309539780E-16, 0.6999999999999979572 ) ) ;
#168 = EDGE_LOOP ( 'NONE', ( #317 ) ) ;
#169 = ORIENTED_EDGE ( 'NONE', *, *, #209, .T. ) ;
#170 = ORIENTED_EDGE ( 'NONE', *, *, #15, .F. ) ;
#171 = ORIENTED_EDGE ( 'NONE', *, *, #46, .F. ) ;
#172 = STYLED_ITEM ( 'NONE', ( #367 ), #134 ) ;
#173 = ADVANCED_FACE ( 'NONE', ( #205, #353 ), #293, .T. ) ;
#174 = COLOUR_RGB ( '',0.7921568627450980005, 0.8196078431372548767, 0.9333333333333333481 ) ;
#175 = DIRECTION ( 'NONE',  ( 1.000000000000000000, 0.0000000000000000000, 0.0000000000000000000 ) ) ;
#176 = FACE_OUTER_BOUND ( 'NONE', #279, .T. ) ;
#177 = DIRECTION ( 'NONE',  ( 1.000000000000000000, 0.0000000000000000000, 0.0000000000000000000 ) ) ;
#178 = FACE_OUTER_BOUND ( 'NONE', #79, .T. ) ;
#179 = DIRECTION ( 'NONE',  ( -1.000000000000000000, 0.0000000000000000000, 0.0000000000000000000 ) ) ;
#180 = DIRECTION ( 'NONE',  ( 1.000000000000000000, 0.0000000000000000000, -0.0000000000000000000 ) ) ;
#181 = CARTESIAN_POINT ( 'NONE',  ( 3.330669073875470410E-15, -1.967176421757700034E-15, 37.00000000000000000 ) ) ;
#182 = DIRECTION ( 'NONE',  ( 0.0000000000000000000, 0.0000000000000000000, -1.000000000000000000 ) ) ;
#183 = CYLINDRICAL_SURFACE ( 'NONE', #118, 5.200000000000001066 ) ;
#184 = EDGE_CURVE ( 'NONE', #274, #274, #227, .T. ) ;
#185 = DIRECTION ( 'NONE',  ( 0.0000000000000000000, 0.0000000000000000000, -1.000000000000000000 ) ) ;
#186 = AXIS2_PLACEMENT_3D ( 'NONE', #189, #187, #11 ) ;
#187 = DIRECTION ( 'NONE',  ( 0.0000000000000000000, 0.0000000000000000000, 1.000000000000000000 ) ) ;
#188 = CARTESIAN_POINT ( 'NONE',  ( -5.199999999999977973, -1.383268499743910079E-14, 2.168404344971008868E-16 ) ) ;
#189 = CARTESIAN_POINT ( 'NONE',  ( -6.068281639404199870E-06, 5.364187041604750128, 27.00000000000000000 ) ) ;
#190 = CARTESIAN_POINT ( 'NONE',  ( -2.099999999999970335, 0.0000000000000000000, 36.00000000000000000 ) ) ;
#191 = CONICAL_SURFACE ( 'NONE', #378, 3.049999999999999822, 0.03490658503988666728 ) ;
#192 = ADVANCED_FACE ( 'NONE', ( #344, #88 ), #191, .T. ) ;
#193 = ORIENTED_EDGE ( 'NONE', *, *, #308, .F. ) ;
#194 = EDGE_CURVE ( 'NONE', #104, #104, #212, .T. ) ;
#195 = EDGE_LOOP ( 'NONE', ( #255 ) ) ;
#196 = STYLED_ITEM ( 'NONE', ( #150 ), #107 ) ;
#197 = ORIENTED_EDGE ( 'NONE', *, *, #209, .F. ) ;
#198 = ORIENTED_EDGE ( 'NONE', *, *, #114, .T. ) ;
#199 = DIRECTION ( 'NONE',  ( -1.000000000000000000, 0.0000000000000000000, -0.0000000000000000000 ) ) ;
#200 = DIRECTION ( 'NONE',  ( 1.000000000000000000, 0.0000000000000000000, 0.0000000000000000000 ) ) ;
#201 = SURFACE_STYLE_FILL_AREA ( #232 ) ;
#202 = AXIS2_PLACEMENT_3D ( 'NONE', #330, #61, #366 ) ;
#203 = DIRECTION ( 'NONE',  ( -1.000000000000000000, 0.0000000000000000000, -0.0000000000000000000 ) ) ;
#204 = SURFACE_STYLE_USAGE ( .BOTH. , #269 ) ;
#205 = FACE_BOUND ( 'NONE', #370, .T. ) ;
#206 = CARTESIAN_POINT ( 'NONE',  ( 3.330669073875470410E-15, -1.967176421757700034E-15, 37.10000000000000142 ) ) ;
#207 =( GEOMETRIC_REPRESENTATION_CONTEXT ( 3 ) GLOBAL_UNCERTAINTY_ASSIGNED_CONTEXT ( ( #32 ) ) GLOBAL_UNIT_ASSIGNED_CONTEXT ( ( #267, #351, #328 ) ) REPRESENTATION_CONTEXT ( 'NONE', 'WORKASPACE' ) );
#208 = DIRECTION ( 'NONE',  ( 1.360567432176258591E-16, 2.551063935306511869E-16, -1.000000000000000000 ) ) ;
#209 = EDGE_CURVE ( 'NONE', #67, #67, #94, .T. ) ;
#210 = DIRECTION ( 'NONE',  ( 1.000000000000000000, 0.0000000000000000000, -0.0000000000000000000 ) ) ;
#211 = CARTESIAN_POINT ( 'NONE',  ( 3.330669073875470410E-15, -1.967176421757700034E-15, 36.00000000000000711 ) ) ;
#212 = CIRCLE ( 'NONE', #354, 2.150000000000010125 ) ;
#213 =( NAMED_UNIT ( * ) PLANE_ANGLE_UNIT ( ) SI_UNIT ( $, .RADIAN. ) );
#214 = DIRECTION ( 'NONE',  ( 1.000000000000000000, 0.0000000000000000000, -0.0000000000000000000 ) ) ;
#215 = CARTESIAN_POINT ( 'NONE',  ( -5.199999999999977973, -1.383268499743910079E-14, -0.5000000000000000000 ) ) ;
#216 = FACE_BOUND ( 'NONE', #313, .T. ) ;
#217 = CARTESIAN_POINT ( 'NONE',  ( 0.05000000000003959610, 0.0000000000000000000, 36.00000000000000000 ) ) ;
#218 = AXIS2_PLACEMENT_3D ( 'NONE', #357, #244, #301 ) ;
#219 = VERTEX_POINT ( 'NONE', #10 ) ;
#220 = ADVANCED_FACE ( 'NONE', ( #326 ), #119, .T. ) ;
#221 = ORIENTED_EDGE ( 'NONE', *, *, #33, .F. ) ;
#222 = EDGE_CURVE ( 'NONE', #219, #219, #314, .T. ) ;
#223 = ORIENTED_EDGE ( 'NONE', *, *, #5, .T. ) ;
#224 = CARTESIAN_POINT ( 'NONE',  ( 0.0000000000000000000, 0.0000000000000000000, 0.0000000000000000000 ) ) ;
#225 = ORIENTED_EDGE ( 'NONE', *, *, #46, .T. ) ;
#226 = CLOSED_SHELL ( 'NONE', ( #292, #278, #230, #220, #368, #299, #173, #144, #65, #320, #263, #289, #343, #53, #158, #358, #192 ) ) ;
#227 = CIRCLE ( 'NONE', #109, 0.9500000000000020650 ) ;
#228 = ORIENTED_EDGE ( 'NONE', *, *, #374, .F. ) ;
#229 = DIRECTION ( 'NONE',  ( -0.0000000000000000000, -0.0000000000000000000, 1.000000000000000000 ) ) ;
#230 = ADVANCED_FACE ( 'NONE', ( #298, #176, #324 ), #34, .T. ) ;
#231 = DIRECTION ( 'NONE',  ( -0.0000000000000000000, -0.0000000000000000000, 1.000000000000000000 ) ) ;
#232 = FILL_AREA_STYLE ('',( #120 ) ) ;
#233 =( GEOMETRIC_REPRESENTATION_CONTEXT ( 3 ) GLOBAL_UNCERTAINTY_ASSIGNED_CONTEXT ( ( #6 ) ) GLOBAL_UNIT_ASSIGNED_CONTEXT ( ( #127, #316, #256 ) ) REPRESENTATION_CONTEXT ( 'NONE', 'WORKASPACE' ) );
#234 = AXIS2_PLACEMENT_3D ( 'NONE', #40, #185, #90 ) ;
#235 = ORIENTED_EDGE ( 'NONE', *, *, #73, .F. ) ;
#236 = CARTESIAN_POINT ( 'NONE',  ( -3.565707097776844821E-14, 1.088028768389651254E-14, 26.99999999998681233 ) ) ;
#237 = CARTESIAN_POINT ( 'NONE',  ( -3.240860993918749090E-14, 1.059988323966746751E-14, 5.684569568537023443E-11 ) ) ;
#238 = DIRECTION ( 'NONE',  ( 4.517509052065497474E-16, 3.614007241816906047E-17, 1.000000000000000000 ) ) ;
#239 = AXIS2_PLACEMENT_3D ( 'NONE', #237, #238, #58 ) ;
#240 = EDGE_CURVE ( 'NONE', #44, #44, #138, .T. ) ;
#241 = AXIS2_PLACEMENT_3D ( 'NONE', #190, #64, #214 ) ;
#242 = FACE_BOUND ( 'NONE', #282, .T. ) ;
#243 = CARTESIAN_POINT ( 'NONE',  ( -2.099999999999970335, 0.0000000000000000000, 36.00000000000000000 ) ) ;
#244 = DIRECTION ( 'NONE',  ( 4.517509052065497474E-16, 3.614007241816906047E-17, 1.000000000000000000 ) ) ;
#245 = CIRCLE ( 'NONE', #77, 5.200000000000001066 ) ;
#246 = CIRCLE ( 'NONE', #239, 5.299999999983700860 ) ;
#247 = VERTEX_POINT ( 'NONE', #165 ) ;
#248 = FACE_BOUND ( 'NONE', #284, .T. ) ;
#249 = CARTESIAN_POINT ( 'NONE',  ( 2.249999999999998224, -6.197299617927140978E-15, 36.00000000000000711 ) ) ;
#250 = DIRECTION ( 'NONE',  ( -1.000000000000000000, 0.0000000000000000000, 0.0000000000000000000 ) ) ;
#251 = EDGE_CURVE ( 'NONE', #247, #247, #347, .T. ) ;
#252 = EDGE_LOOP ( 'NONE', ( #113 ) ) ;
#253 = SURFACE_STYLE_USAGE ( .BOTH. , #14 ) ;
#254 = ORIENTED_EDGE ( 'NONE', *, *, #100, .T. ) ;
#255 = ORIENTED_EDGE ( 'NONE', *, *, #222, .T. ) ;
#256 =( NAMED_UNIT ( * ) SI_UNIT ( $, .STERADIAN. ) SOLID_ANGLE_UNIT ( ) );
#257 = EDGE_LOOP ( 'NONE', ( #228 ) ) ;
#258 = AXIS2_PLACEMENT_3D ( 'NONE', #329, #297, #203 ) ;
#259 = ORIENTED_EDGE ( 'NONE', *, *, #374, .T. ) ;
#260 = FACE_BOUND ( 'NONE', #311, .T. ) ;
#261 = DIRECTION ( 'NONE',  ( 1.000000000000000000, 0.0000000000000000000, 0.0000000000000000000 ) ) ;
#262 = ORIENTED_EDGE ( 'NONE', *, *, #194, .F. ) ;
#263 = ADVANCED_FACE ( 'NONE', ( #268, #1 ), #21, .T. ) ;
#264 = COLOUR_RGB ( '',0.7921568627450980005, 0.8196078431372548767, 0.9333333333333333481 ) ;
#265 = AXIS2_PLACEMENT_3D ( 'NONE', #25, #63, #89 ) ;
#266 = DIRECTION ( 'NONE',  ( 0.0000000000000000000, 0.0000000000000000000, 1.000000000000000000 ) ) ;
#267 =( LENGTH_UNIT ( ) NAMED_UNIT ( * ) SI_UNIT ( .MILLI., .METRE. ) );
#268 = FACE_OUTER_BOUND ( 'NONE', #51, .T. ) ;
#269 = SURFACE_SIDE_STYLE ('',( #201 ) ) ;
#270 = DIRECTION ( 'NONE',  ( 0.0000000000000000000, 0.0000000000000000000, 1.000000000000000000 ) ) ;
#271 = CYLINDRICAL_SURFACE ( 'NONE', #234, 6.000000000000000000 ) ;
#272 = DIRECTION ( 'NONE',  ( 1.000000000000000000, 0.0000000000000000000, 0.0000000000000000000 ) ) ;
#273 = DIRECTION ( 'NONE',  ( -0.0000000000000000000, -0.0000000000000000000, 1.000000000000000000 ) ) ;
#274 = VERTEX_POINT ( 'NONE', #249 ) ;
#275 = DIRECTION ( 'NONE',  ( 1.000000000000000000, 0.0000000000000000000, 0.0000000000000000000 ) ) ;
#276 = CARTESIAN_POINT ( 'NONE',  ( 5.225000000000016520, 1.967176421757700034E-15, 36.00000000000000711 ) ) ;
#277 = PRODUCT_RELATED_PRODUCT_CATEGORY ( 'part', '', ( #66 ) ) ;
#278 = ADVANCED_FACE ( 'NONE', ( #98, #125 ), #9, .F. ) ;
#279 = EDGE_LOOP ( 'NONE', ( #225 ) ) ;
#280 = SURFACE_STYLE_FILL_AREA ( #45 ) ;
#281 = AXIS2_PLACEMENT_3D ( 'NONE', #291, #229, #179 ) ;
#282 = EDGE_LOOP ( 'NONE', ( #198 ) ) ;
#283 = CIRCLE ( 'NONE', #306, 5.224999999999999645 ) ;
#284 = EDGE_LOOP ( 'NONE', ( #197 ) ) ;
#285 = EDGE_LOOP ( 'NONE', ( #221 ) ) ;
#286 = PRESENTATION_LAYER_ASSIGNMENT (  '', '', ( #172 ) ) ;
#287 = CONICAL_SURFACE ( 'NONE', #218, 5.999999999941735496, 0.7853981634117781496 ) ;
#288 = DIRECTION ( 'NONE',  ( -0.8823529411768634700, 0.4705882352933810631, 0.0000000000000000000 ) ) ;
#289 = ADVANCED_FACE ( 'NONE', ( #216, #160 ), #128, .T. ) ;
#290 = DIRECTION ( 'NONE',  ( 0.0000000000000000000, 0.0000000000000000000, 1.000000000000000000 ) ) ;
#291 = CARTESIAN_POINT ( 'NONE',  ( 2.220446049250310241E-14, -1.383268499743910079E-14, 2.168404344971008868E-16 ) ) ;
#292 = ADVANCED_FACE ( 'NONE', ( #4 ), #7, .T. ) ;
#293 = PLANE ( 'NONE',  #258 ) ;
#294 = CARTESIAN_POINT ( 'NONE',  ( 6.068253755042720161E-06, 5.313581486200149584, 36.00000000000000711 ) ) ;
#295 = DIRECTION ( 'NONE',  ( -1.000000000000000000, 0.0000000000000000000, 0.0000000000000000000 ) ) ;
#296 = EDGE_LOOP ( 'NONE', ( #143 ) ) ;
#297 = DIRECTION ( 'NONE',  ( 0.0000000000000000000, 0.0000000000000000000, -1.000000000000000000 ) ) ;
#298 = FACE_BOUND ( 'NONE', #18, .T. ) ;
#299 = ADVANCED_FACE ( 'NONE', ( #242, #70 ), #287, .T. ) ;
#300 = UNCERTAINTY_MEASURE_WITH_UNIT (LENGTH_MEASURE( 1.000000000000000082E-05 ), #164, 'distance_accuracy_value', 'NONE');
#301 = DIRECTION ( 'NONE',  ( 1.000000000000000000, 0.0000000000000000000, -4.517509052066804025E-16 ) ) ;
#302 = DIRECTION ( 'NONE',  ( 0.0000000000000000000, 0.0000000000000000000, 1.000000000000000000 ) ) ;
#303 = CARTESIAN_POINT ( 'NONE',  ( -5.294117647054008557, 2.823529411756453555, 26.29999999999199645 ) ) ;
#304 = FACE_OUTER_BOUND ( 'NONE', #103, .T. ) ;
#305 = CARTESIAN_POINT ( 'NONE',  ( 5.225000000000016520, 1.967176421757700034E-15, 27.00000000000000000 ) ) ;
#306 = AXIS2_PLACEMENT_3D ( 'NONE', #111, #323, #153 ) ;
#307 = MECHANICAL_DESIGN_GEOMETRIC_PRESENTATION_REPRESENTATION (  '', ( #196 ), #207 ) ;
#308 = EDGE_CURVE ( 'NONE', #42, #42, #55, .T. ) ;
#309 = DIRECTION ( 'NONE',  ( -0.0000000000000000000, -0.0000000000000000000, 1.000000000000000000 ) ) ;
#310 = FILL_AREA_STYLE_COLOUR ( '', #264 ) ;
#311 = EDGE_LOOP ( 'NONE', ( #170 ) ) ;
#312 = AXIS2_PLACEMENT_3D ( 'NONE', #117, #380, #288 ) ;
#313 = EDGE_LOOP ( 'NONE', ( #223 ) ) ;
#314 = CIRCLE ( 'NONE', #151, 5.299999999970266273 ) ;
#315 = EDGE_LOOP ( 'NONE', ( #193 ) ) ;
#316 =( NAMED_UNIT ( * ) PLANE_ANGLE_UNIT ( ) SI_UNIT ( $, .RADIAN. ) );
#317 = ORIENTED_EDGE ( 'NONE', *, *, #184, .T. ) ;
#318 = DIRECTION ( 'NONE',  ( 0.0000000000000000000, 0.0000000000000000000, -1.000000000000000000 ) ) ;
#319 = PRODUCT_DEFINITION ( 'UNKNOWN', '', #360, #352 ) ;
#320 = ADVANCED_FACE ( 'NONE', ( #71, #304 ), #271, .T. ) ;
#321 = AXIS2_PLACEMENT_3D ( 'NONE', #364, #335, #210 ) ;
#322 = CARTESIAN_POINT ( 'NONE',  ( -2.099999999999970335, 0.0000000000000000000, 37.00000000000000000 ) ) ;
#323 = DIRECTION ( 'NONE',  ( -0.0000000000000000000, -0.0000000000000000000, -1.000000000000000000 ) ) ;
#324 = FACE_BOUND ( 'NONE', #252, .T. ) ;
#325 = FACE_OUTER_BOUND ( 'NONE', #296, .T. ) ;
#326 = FACE_OUTER_BOUND ( 'NONE', #168, .T. ) ;
#327 = PLANE ( 'NONE',  #331 ) ;
#328 =( NAMED_UNIT ( * ) SI_UNIT ( $, .STERADIAN. ) SOLID_ANGLE_UNIT ( ) );
#329 = CARTESIAN_POINT ( 'NONE',  ( -6.068281640514430518E-06, 5.365693088389189569, 0.0000000000000000000 ) ) ;
#330 = CARTESIAN_POINT ( 'NONE',  ( 3.200000000000000178, -6.197299617927140978E-15, 36.50000000000000000 ) ) ;
#331 = AXIS2_PLACEMENT_3D ( 'NONE', #294, #318, #199 ) ;
#332 = FACE_OUTER_BOUND ( 'NONE', #338, .T. ) ;
#333 = DIRECTION ( 'NONE',  ( -0.0000000000000000000, -0.0000000000000000000, -1.000000000000000000 ) ) ;
#334 = VERTEX_POINT ( 'NONE', #99 ) ;
#335 = DIRECTION ( 'NONE',  ( 0.0000000000000000000, 0.0000000000000000000, 1.000000000000000000 ) ) ;
#336 = CIRCLE ( 'NONE', #312, 5.999999999991831423 ) ;
#337 = ORIENTED_EDGE ( 'NONE', *, *, #5, .F. ) ;
#338 = EDGE_LOOP ( 'NONE', ( #369 ) ) ;
#339 = ORIENTED_EDGE ( 'NONE', *, *, #308, .T. ) ;
#340 = ORIENTED_EDGE ( 'NONE', *, *, #240, .F. ) ;
#341 = APPLICATION_PROTOCOL_DEFINITION ( 'draft international standard', 'automotive_design', 1998, #133 ) ;
#342 = DIRECTION ( 'NONE',  ( 1.000000000000000000, 0.0000000000000000000, 0.0000000000000000000 ) ) ;
#343 = ADVANCED_FACE ( 'NONE', ( #162, #126 ), #130, .T. ) ;
#344 = FACE_BOUND ( 'NONE', #74, .T. ) ;
#345 = ORIENTED_EDGE ( 'NONE', *, *, #194, .T. ) ;
#346 = AXIS2_PLACEMENT_3D ( 'NONE', #224, #80, #75 ) ;
#347 = CIRCLE ( 'NONE', #3, 3.049999999999999822 ) ;
#348 = DIRECTION ( 'NONE',  ( 1.000000000000000000, 0.0000000000000000000, 0.0000000000000000000 ) ) ;
#349 = CARTESIAN_POINT ( 'NONE',  ( 2.220446049250310241E-14, -1.383268499743910079E-14, -0.5000000000000000000 ) ) ;
#350 = DIRECTION ( 'NONE',  ( 0.0000000000000000000, 0.0000000000000000000, 1.000000000000000000 ) ) ;
#351 =( NAMED_UNIT ( * ) PLANE_ANGLE_UNIT ( ) SI_UNIT ( $, .RADIAN. ) );
#352 = PRODUCT_DEFINITION_CONTEXT ( 'detailed design', #133, 'design' ) ;
#353 = FACE_OUTER_BOUND ( 'NONE', #166, .T. ) ;
#354 = AXIS2_PLACEMENT_3D ( 'NONE', #2, #270, #124 ) ;
#355 = FACE_OUTER_BOUND ( 'NONE', #110, .T. ) ;
#356 = PRODUCT_DEFINITION_SHAPE ( 'NONE', 'NONE',  #319 ) ;
#357 = CARTESIAN_POINT ( 'NONE',  ( -3.209238430557093125E-14, 1.062518129035794345E-14, 0.6999999999948183227 ) ) ;
#358 = ADVANCED_FACE ( 'NONE', ( #248, #332 ), #36, .T. ) ;
#359 = CARTESIAN_POINT ( 'NONE',  ( 1.665334536937730077E-14, 1.967176421757700034E-15, 36.90000000000000568 ) ) ;
#360 = PRODUCT_DEFINITION_FORMATION_WITH_SPECIFIED_SOURCE ( 'ANY', '', #66, .NOT_KNOWN. ) ;
#361 = DIRECTION ( 'NONE',  ( 0.0000000000000000000, 1.000000000000000000, 0.0000000000000000000 ) ) ;
#362 = AXIS2_PLACEMENT_3D ( 'NONE', #115, #290, #180 ) ;
#363 = CARTESIAN_POINT ( 'NONE',  ( 5.250000000000003553, -1.967176421757700034E-15, 36.00000000000000711 ) ) ;
#364 = CARTESIAN_POINT ( 'NONE',  ( -2.099999999999970335, 0.0000000000000000000, 41.99999999999999289 ) ) ;
#365 = VERTEX_POINT ( 'NONE', #215 ) ;
#366 = DIRECTION ( 'NONE',  ( -1.000000000000000000, 0.0000000000000000000, 0.0000000000000000000 ) ) ;
#367 = PRESENTATION_STYLE_ASSIGNMENT (( #253 ) ) ;
#368 = ADVANCED_FACE ( 'NONE', ( #157, #91 ), #68, .F. ) ;
#369 = ORIENTED_EDGE ( 'NONE', *, *, #85, .T. ) ;
#370 = EDGE_LOOP ( 'NONE', ( #139 ) ) ;
#371 = SHAPE_DEFINITION_REPRESENTATION ( #356, #134 ) ;
#372 = EDGE_LOOP ( 'NONE', ( #106 ) ) ;
#373 = EDGE_LOOP ( 'NONE', ( #262 ) ) ;
#374 = EDGE_CURVE ( 'NONE', #334, #334, #156, .T. ) ;
#375 = DIRECTION ( 'NONE',  ( 0.0000000000000000000, 0.0000000000000000000, 1.000000000000000000 ) ) ;
#376 = DIRECTION ( 'NONE',  ( 1.000000000000000000, 0.0000000000000000000, 0.0000000000000000000 ) ) ;
#377 = FACE_OUTER_BOUND ( 'NONE', #81, .T. ) ;
#378 = AXIS2_PLACEMENT_3D ( 'NONE', #322, #154, #376 ) ;
#379 = DIRECTION ( 'NONE',  ( -1.000000000000000000, 0.0000000000000000000, 0.0000000000000000000 ) ) ;
#380 = DIRECTION ( 'NONE',  ( -4.279679444008079846E-16, -5.108407279705260228E-17, 1.000000000000000000 ) ) ;
ENDSEC;
END-ISO-10303-21;
