ISO-10303-21;
HEADER;
FILE_DESCRIPTION (( 'STEP AP214' ),
    '1' );
FILE_NAME ('DSD-0276.STEP',
    '2020-09-23T13:39:49',
    ( '' ),
    ( '' ),
    'SwSTEP 2.0',
    'SolidWorks 2019',
    '' );
FILE_SCHEMA (( 'AUTOMOTIVE_DESIGN' ));
ENDSEC;

DATA;
#1 = CARTESIAN_POINT ( 'NONE',  ( -4.218847493575589805E-14, -2.428612866367529932E-16, -6.000000000000000000 ) ) ;
#2 = CYLINDRICAL_SURFACE ( 'NONE', #334, 5.250000000000000000 ) ;
#3 = AXIS2_PLACEMENT_3D ( 'NONE', #364, #217, #99 ) ;
#4 = SURFACE_STYLE_FILL_AREA ( #231 ) ;
#5 = CARTESIAN_POINT ( 'NONE',  ( -6.000000000000032863, 6.765421556309539780E-16, 0.6999999999999979572 ) ) ;
#6 = FACE_OUTER_BOUND ( 'NONE', #161, .T. ) ;
#7 = EDGE_CURVE ( 'NONE', #318, #318, #18, .T. ) ;
#8 = PRODUCT_RELATED_PRODUCT_CATEGORY ( 'part', '', ( #40 ) ) ;
#9 = DIRECTION ( 'NONE',  ( 0.0000000000000000000, 0.0000000000000000000, -1.000000000000000000 ) ) ;
#10 = AXIS2_PLACEMENT_3D ( 'NONE', #86, #32, #319 ) ;
#11 = CARTESIAN_POINT ( 'NONE',  ( 0.7753961525412901290, 0.0000000000000000000, 41.99999999999999289 ) ) ;
#12 = CARTESIAN_POINT ( 'NONE',  ( -6.068309255091720326E-06, 5.414792597003410535, -1.734723475976799995E-15 ) ) ;
#13 = PLANE ( 'NONE',  #157 ) ;
#14 = CIRCLE ( 'NONE', #222, 5.299999999970266273 ) ;
#15 = DIRECTION ( 'NONE',  ( -1.000000000000000000, 0.0000000000000000000, -0.0000000000000000000 ) ) ;
#16 = ADVANCED_FACE ( 'NONE', ( #229, #145 ), #116, .F. ) ;
#17 = FACE_OUTER_BOUND ( 'NONE', #264, .T. ) ;
#18 = CIRCLE ( 'NONE', #362, 2.149999999999999911 ) ;
#19 = CONICAL_SURFACE ( 'NONE', #111, 3.049999999999999822, 0.03490658503988666728 ) ;
#20 = DIRECTION ( 'NONE',  ( 0.0000000000000000000, 0.0000000000000000000, 1.000000000000000000 ) ) ;
#21 = ADVANCED_FACE ( 'NONE', ( #321 ), #225, .T. ) ;
#22 = CARTESIAN_POINT ( 'NONE',  ( 0.05000000000002961797, 0.0000000000000000000, 35.98399999999999466 ) ) ;
#23 = EDGE_LOOP ( 'NONE', ( #253 ) ) ;
#24 = ADVANCED_BREP_SHAPE_REPRESENTATION ( 'DSD-0276', ( #91, #34 ), #177 ) ;
#25 = VERTEX_POINT ( 'NONE', #142 ) ;
#26 = EDGE_LOOP ( 'NONE', ( #94 ) ) ;
#27 = AXIS2_PLACEMENT_3D ( 'NONE', #211, #307, #182 ) ;
#28 =( GEOMETRIC_REPRESENTATION_CONTEXT ( 3 ) GLOBAL_UNCERTAINTY_ASSIGNED_CONTEXT ( ( #121 ) ) GLOBAL_UNIT_ASSIGNED_CONTEXT ( ( #101, #304, #265 ) ) REPRESENTATION_CONTEXT ( 'NONE', 'WORKASPACE' ) );
#29 = CARTESIAN_POINT ( 'NONE',  ( -2.099999999999970335, 0.0000000000000000000, 41.99999999999999289 ) ) ;
#30 = AXIS2_PLACEMENT_3D ( 'NONE', #92, #323, #261 ) ;
#31 = EDGE_LOOP ( 'NONE', ( #258 ) ) ;
#32 = DIRECTION ( 'NONE',  ( 0.0000000000000000000, 0.0000000000000000000, 1.000000000000000000 ) ) ;
#33 = DIRECTION ( 'NONE',  ( 0.0000000000000000000, 0.0000000000000000000, 1.000000000000000000 ) ) ;
#34 = AXIS2_PLACEMENT_3D ( 'NONE', #214, #106, #47 ) ;
#35 = CARTESIAN_POINT ( 'NONE',  ( -5.350000000000042277, -2.428612866367529932E-16, -6.000000000000000000 ) ) ;
#36 = ORIENTED_EDGE ( 'NONE', *, *, #141, .F. ) ;
#37 = EDGE_CURVE ( 'NONE', #192, #192, #82, .T. ) ;
#38 = CIRCLE ( 'NONE', #305, 5.224999999999999645 ) ;
#39 = SURFACE_STYLE_FILL_AREA ( #299 ) ;
#40 = PRODUCT ( 'DSD-0276', 'DSD-0276', '', ( #300 ) ) ;
#41 = DIRECTION ( 'NONE',  ( 1.000000000000000000, 0.0000000000000000000, 0.0000000000000000000 ) ) ;
#42 = CARTESIAN_POINT ( 'NONE',  ( 3.200000000000000178, -6.197299617927140978E-15, 36.00000000000000711 ) ) ;
#43 = DIRECTION ( 'NONE',  ( -1.000000000000000000, 0.0000000000000000000, -0.0000000000000000000 ) ) ;
#44 = AXIS2_PLACEMENT_3D ( 'NONE', #55, #315, #194 ) ;
#45 = FACE_OUTER_BOUND ( 'NONE', #144, .T. ) ;
#46 = AXIS2_PLACEMENT_3D ( 'NONE', #320, #170, #143 ) ;
#47 = DIRECTION ( 'NONE',  ( 1.000000000000000000, 0.0000000000000000000, 0.0000000000000000000 ) ) ;
#48 = DIRECTION ( 'NONE',  ( 1.360567432176258591E-16, 2.551063935306511869E-16, -1.000000000000000000 ) ) ;
#49 = FACE_OUTER_BOUND ( 'NONE', #133, .T. ) ;
#50 = CONICAL_SURFACE ( 'NONE', #3, 5.999999999941735496, 0.7853981634117781496 ) ;
#51 = ORIENTED_EDGE ( 'NONE', *, *, #234, .F. ) ;
#52 = FACE_BOUND ( 'NONE', #171, .T. ) ;
#53 = CARTESIAN_POINT ( 'NONE',  ( -5.294117647054008557, 2.823529411756453555, 26.29999999999199645 ) ) ;
#54 = PRODUCT_DEFINITION_SHAPE ( 'NONE', 'NONE',  #72 ) ;
#55 = CARTESIAN_POINT ( 'NONE',  ( -3.330669073875470252E-14, 6.765421556309539780E-16, 0.6999999999999979572 ) ) ;
#56 = EDGE_LOOP ( 'NONE', ( #122 ) ) ;
#57 = CARTESIAN_POINT ( 'NONE',  ( 2.249999999999998224, -6.197299617927140978E-15, 37.00000000000000000 ) ) ;
#58 = VERTEX_POINT ( 'NONE', #160 ) ;
#59 = CARTESIAN_POINT ( 'NONE',  ( -2.099999999999970335, 0.0000000000000000000, 41.99999999999999289 ) ) ;
#60 = ADVANCED_FACE ( 'NONE', ( #6, #256 ), #2, .T. ) ;
#61 = ORIENTED_EDGE ( 'NONE', *, *, #213, .F. ) ;
#62 = UNCERTAINTY_MEASURE_WITH_UNIT (LENGTH_MEASURE( 1.000000000000000082E-05 ), #358, 'distance_accuracy_value', 'NONE');
#63 = EDGE_LOOP ( 'NONE', ( #342 ) ) ;
#64 = PRESENTATION_LAYER_ASSIGNMENT (  '', '', ( #126 ) ) ;
#65 = EDGE_LOOP ( 'NONE', ( #327 ) ) ;
#66 = FACE_OUTER_BOUND ( 'NONE', #63, .T. ) ;
#67 = CIRCLE ( 'NONE', #152, 5.999999999991831423 ) ;
#68 = DIRECTION ( 'NONE',  ( 1.000000000000000000, 0.0000000000000000000, 0.0000000000000000000 ) ) ;
#69 = CARTESIAN_POINT ( 'NONE',  ( -6.068314994944760179E-06, 5.416312777618400354, -6.000000000000000000 ) ) ;
#70 = ADVANCED_FACE ( 'NONE', ( #228, #353 ), #198, .T. ) ;
#71 = DIRECTION ( 'NONE',  ( -0.0000000000000000000, -0.0000000000000000000, 1.000000000000000000 ) ) ;
#72 = PRODUCT_DEFINITION ( 'UNKNOWN', '', #120, #292 ) ;
#73 = FACE_BOUND ( 'NONE', #26, .T. ) ;
#74 = STYLED_ITEM ( 'NONE', ( #361 ), #91 ) ;
#75 = CARTESIAN_POINT ( 'NONE',  ( 1.665334536937730077E-14, 1.967176421757700034E-15, 36.90000000000000568 ) ) ;
#76 = CARTESIAN_POINT ( 'NONE',  ( -3.240860993918749090E-14, 1.059988323966746751E-14, 5.684569568537023443E-11 ) ) ;
#77 = DIRECTION ( 'NONE',  ( 1.000000000000000000, 0.0000000000000000000, 0.0000000000000000000 ) ) ;
#78 = ORIENTED_EDGE ( 'NONE', *, *, #250, .F. ) ;
#79 = VERTEX_POINT ( 'NONE', #189 ) ;
#80 = EDGE_LOOP ( 'NONE', ( #375 ) ) ;
#81 = VERTEX_POINT ( 'NONE', #380 ) ;
#82 = CIRCLE ( 'NONE', #30, 0.9500000000000020650 ) ;
#83 = EDGE_CURVE ( 'NONE', #166, #166, #260, .T. ) ;
#84 = EDGE_LOOP ( 'NONE', ( #174 ) ) ;
#85 = ADVANCED_FACE ( 'NONE', ( #243, #178 ), #150, .T. ) ;
#86 = CARTESIAN_POINT ( 'NONE',  ( -2.099999999999970335, 0.0000000000000000000, 41.99999999999999289 ) ) ;
#87 = EDGE_LOOP ( 'NONE', ( #230 ) ) ;
#88 = EDGE_LOOP ( 'NONE', ( #140 ) ) ;
#89 = AXIS2_PLACEMENT_3D ( 'NONE', #179, #241, #155 ) ;
#90 =( LENGTH_UNIT ( ) NAMED_UNIT ( * ) SI_UNIT ( .MILLI., .METRE. ) );
#91 = MANIFOLD_SOLID_BREP ( 'Cut-Extrude3', #199 ) ;
#92 = CARTESIAN_POINT ( 'NONE',  ( 3.200000000000000178, -6.197299617927140978E-15, 37.00000000000000000 ) ) ;
#93 = ADVANCED_FACE ( 'NONE', ( #124, #185 ), #237, .T. ) ;
#94 = ORIENTED_EDGE ( 'NONE', *, *, #317, .F. ) ;
#95 = APPLICATION_PROTOCOL_DEFINITION ( 'draft international standard', 'automotive_design', 1998, #372 ) ;
#96 = CARTESIAN_POINT ( 'NONE',  ( -2.099999999999970335, 0.0000000000000000000, 35.98399999999999466 ) ) ;
#97 = COLOUR_RGB ( '',0.7921568627450980005, 0.8196078431372548767, 0.9333333333333333481 ) ;
#98 = DIRECTION ( 'NONE',  ( 1.000000000000000000, 0.0000000000000000000, -0.0000000000000000000 ) ) ;
#99 = DIRECTION ( 'NONE',  ( 1.000000000000000000, 0.0000000000000000000, -4.517509052066804025E-16 ) ) ;
#100 = SHAPE_DEFINITION_REPRESENTATION ( #54, #24 ) ;
#101 =( LENGTH_UNIT ( ) NAMED_UNIT ( * ) SI_UNIT ( .MILLI., .METRE. ) );
#102 = DIRECTION ( 'NONE',  ( 0.0000000000000000000, 0.0000000000000000000, 1.000000000000000000 ) ) ;
#103 = DIRECTION ( 'NONE',  ( 1.360567432176258591E-16, 2.551063935306511869E-16, -1.000000000000000000 ) ) ;
#104 = DIRECTION ( 'NONE',  ( 0.0000000000000000000, 0.0000000000000000000, -1.000000000000000000 ) ) ;
#105 = AXIS2_PLACEMENT_3D ( 'NONE', #29, #350, #163 ) ;
#106 = DIRECTION ( 'NONE',  ( 0.0000000000000000000, 0.0000000000000000000, 1.000000000000000000 ) ) ;
#107 = DIRECTION ( 'NONE',  ( 0.0000000000000000000, 0.0000000000000000000, -1.000000000000000000 ) ) ;
#108 = DIRECTION ( 'NONE',  ( 1.000000000000000000, 0.0000000000000000000, 0.0000000000000000000 ) ) ;
#109 = APPLICATION_CONTEXT ( 'automotive_design' ) ;
#110 = ORIENTED_EDGE ( 'NONE', *, *, #83, .F. ) ;
#111 = AXIS2_PLACEMENT_3D ( 'NONE', #270, #368, #68 ) ;
#112 = VERTEX_POINT ( 'NONE', #35 ) ;
#113 = ORIENTED_EDGE ( 'NONE', *, *, #374, .T. ) ;
#114 = PLANE ( 'NONE',  #10 ) ;
#115 = ORIENTED_EDGE ( 'NONE', *, *, #83, .T. ) ;
#116 = CYLINDRICAL_SURFACE ( 'NONE', #328, 0.9500000000000020650 ) ;
#117 = DIRECTION ( 'NONE',  ( -0.0000000000000000000, -0.0000000000000000000, 1.000000000000000000 ) ) ;
#118 = ADVANCED_FACE ( 'NONE', ( #66, #335 ), #363, .F. ) ;
#119 = DIRECTION ( 'NONE',  ( 1.000000000000000000, 0.0000000000000000000, 0.0000000000000000000 ) ) ;
#120 = PRODUCT_DEFINITION_FORMATION_WITH_SPECIFIED_SOURCE ( 'ANY', '', #40, .NOT_KNOWN. ) ;
#121 = UNCERTAINTY_MEASURE_WITH_UNIT (LENGTH_MEASURE( 1.000000000000000082E-05 ), #101, 'distance_accuracy_value', 'NONE');
#122 = ORIENTED_EDGE ( 'NONE', *, *, #250, .T. ) ;
#123 = AXIS2_PLACEMENT_3D ( 'NONE', #223, #377, #376 ) ;
#124 = FACE_BOUND ( 'NONE', #279, .T. ) ;
#125 = FACE_OUTER_BOUND ( 'NONE', #23, .T. ) ;
#126 = STYLED_ITEM ( 'NONE', ( #326 ), #24 ) ;
#127 = DIRECTION ( 'NONE',  ( -0.0000000000000000000, -0.0000000000000000000, 1.000000000000000000 ) ) ;
#128 = FACE_BOUND ( 'NONE', #56, .T. ) ;
#129 = CARTESIAN_POINT ( 'NONE',  ( -4.218847493575589805E-14, -2.428612866367529932E-16, 8.673617379884035472E-16 ) ) ;
#130 = CARTESIAN_POINT ( 'NONE',  ( -3.565707097776844821E-14, 1.088028768389651254E-14, 26.99999999998681233 ) ) ;
#131 = CIRCLE ( 'NONE', #44, 6.000000000000000000 ) ;
#132 = CARTESIAN_POINT ( 'NONE',  ( -3.552414101239077279E-14, 1.110258783476158890E-14, 26.29999999999199645 ) ) ;
#133 = EDGE_LOOP ( 'NONE', ( #355 ) ) ;
#134 = CARTESIAN_POINT ( 'NONE',  ( 0.05000000000002961797, 0.0000000000000000000, 41.99999999999999289 ) ) ;
#135 = ORIENTED_EDGE ( 'NONE', *, *, #332, .F. ) ;
#136 = CIRCLE ( 'NONE', #203, 5.299999999983700860 ) ;
#137 = FACE_OUTER_BOUND ( 'NONE', #175, .T. ) ;
#138 = ORIENTED_EDGE ( 'NONE', *, *, #357, .T. ) ;
#139 = VERTEX_POINT ( 'NONE', #252 ) ;
#140 = ORIENTED_EDGE ( 'NONE', *, *, #314, .T. ) ;
#141 = EDGE_CURVE ( 'NONE', #227, #227, #184, .T. ) ;
#142 = CARTESIAN_POINT ( 'NONE',  ( -3.565707097776844821E-14, 5.299999999970276932, 26.99999999998681233 ) ) ;
#143 = DIRECTION ( 'NONE',  ( 1.000000000000000000, 0.0000000000000000000, -0.0000000000000000000 ) ) ;
#144 = EDGE_LOOP ( 'NONE', ( #287 ) ) ;
#145 = FACE_OUTER_BOUND ( 'NONE', #84, .T. ) ;
#146 = ADVANCED_FACE ( 'NONE', ( #153, #333 ), #19, .T. ) ;
#147 = SURFACE_STYLE_USAGE ( .BOTH. , #202 ) ;
#148 = DIRECTION ( 'NONE',  ( 0.0000000000000000000, 0.0000000000000000000, 1.000000000000000000 ) ) ;
#149 = CARTESIAN_POINT ( 'NONE',  ( 1.665334536937730077E-14, 1.967176421757700034E-15, 36.00000000000000711 ) ) ;
#150 = CYLINDRICAL_SURFACE ( 'NONE', #254, 5.224999999999999645 ) ;
#151 = FACE_BOUND ( 'NONE', #285, .T. ) ;
#152 = AXIS2_PLACEMENT_3D ( 'NONE', #132, #238, #216 ) ;
#153 = FACE_BOUND ( 'NONE', #188, .T. ) ;
#154 = CYLINDRICAL_SURFACE ( 'NONE', #89, 5.349999999999999645 ) ;
#155 = DIRECTION ( 'NONE',  ( -1.000000000000000000, 0.0000000000000000000, 0.0000000000000000000 ) ) ;
#156 = DIRECTION ( 'NONE',  ( -0.0000000000000000000, -0.0000000000000000000, 1.000000000000000000 ) ) ;
#157 = AXIS2_PLACEMENT_3D ( 'NONE', #244, #102, #306 ) ;
#158 = VERTEX_POINT ( 'NONE', #22 ) ;
#159 = DIRECTION ( 'NONE',  ( 0.0000000000000000000, 1.000000000000000000, 0.0000000000000000000 ) ) ;
#160 = CARTESIAN_POINT ( 'NONE',  ( 5.299999999983668886, 1.059988323966746751E-14, 5.684330140557264504E-11 ) ) ;
#161 = EDGE_LOOP ( 'NONE', ( #135 ) ) ;
#162 = AXIS2_PLACEMENT_3D ( 'NONE', #42, #127, #337 ) ;
#163 = DIRECTION ( 'NONE',  ( 1.000000000000000000, 0.0000000000000000000, 0.0000000000000000000 ) ) ;
#164 = ORIENTED_EDGE ( 'NONE', *, *, #213, .T. ) ;
#165 = CIRCLE ( 'NONE', #370, 5.349999999999999645 ) ;
#166 = VERTEX_POINT ( 'NONE', #284 ) ;
#167 = ORIENTED_EDGE ( 'NONE', *, *, #262, .T. ) ;
#168 = ADVANCED_FACE ( 'NONE', ( #180, #52 ), #324, .T. ) ;
#169 = DIRECTION ( 'NONE',  ( -1.000000000000000000, 0.0000000000000000000, 0.0000000000000000000 ) ) ;
#170 = DIRECTION ( 'NONE',  ( 0.0000000000000000000, 0.0000000000000000000, 1.000000000000000000 ) ) ;
#171 = EDGE_LOOP ( 'NONE', ( #167 ) ) ;
#172 = ADVANCED_FACE ( 'NONE', ( #73, #125, #273 ), #13, .T. ) ;
#173 =( NAMED_UNIT ( * ) SI_UNIT ( $, .STERADIAN. ) SOLID_ANGLE_UNIT ( ) );
#174 = ORIENTED_EDGE ( 'NONE', *, *, #37, .F. ) ;
#175 = EDGE_LOOP ( 'NONE', ( #113 ) ) ;
#176 =( NAMED_UNIT ( * ) SI_UNIT ( $, .STERADIAN. ) SOLID_ANGLE_UNIT ( ) );
#177 =( GEOMETRIC_REPRESENTATION_CONTEXT ( 3 ) GLOBAL_UNCERTAINTY_ASSIGNED_CONTEXT ( ( #200 ) ) GLOBAL_UNIT_ASSIGNED_CONTEXT ( ( #90, #322, #173 ) ) REPRESENTATION_CONTEXT ( 'NONE', 'WORKASPACE' ) );
#178 = FACE_OUTER_BOUND ( 'NONE', #344, .T. ) ;
#179 = CARTESIAN_POINT ( 'NONE',  ( -4.218847493575589805E-14, -2.428612866367529932E-16, -6.599999999999999645 ) ) ;
#180 = FACE_OUTER_BOUND ( 'NONE', #378, .T. ) ;
#181 = DIRECTION ( 'NONE',  ( 1.000000000000000000, 0.0000000000000000000, -4.517509052068580935E-16 ) ) ;
#182 = DIRECTION ( 'NONE',  ( 1.000000000000000000, 0.0000000000000000000, 0.0000000000000000000 ) ) ;
#183 = FACE_OUTER_BOUND ( 'NONE', #87, .T. ) ;
#184 = CIRCLE ( 'NONE', #27, 5.224999999999999645 ) ;
#185 = FACE_OUTER_BOUND ( 'NONE', #31, .T. ) ;
#186 = DIRECTION ( 'NONE',  ( 4.517509052065497474E-16, 3.614007241816906047E-17, 1.000000000000000000 ) ) ;
#187 = PLANE ( 'NONE',  #283 ) ;
#188 = EDGE_LOOP ( 'NONE', ( #296 ) ) ;
#189 = CARTESIAN_POINT ( 'NONE',  ( -5.350000000000042277, -2.428612866367529932E-16, 8.673617379884035472E-16 ) ) ;
#190 = ORIENTED_EDGE ( 'NONE', *, *, #37, .T. ) ;
#191 =( GEOMETRIC_REPRESENTATION_CONTEXT ( 3 ) GLOBAL_UNCERTAINTY_ASSIGNED_CONTEXT ( ( #62 ) ) GLOBAL_UNIT_ASSIGNED_CONTEXT ( ( #358, #206, #176 ) ) REPRESENTATION_CONTEXT ( 'NONE', 'WORKASPACE' ) );
#192 = VERTEX_POINT ( 'NONE', #57 ) ;
#193 = ORIENTED_EDGE ( 'NONE', *, *, #239, .T. ) ;
#194 = DIRECTION ( 'NONE',  ( -1.000000000000000000, 0.0000000000000000000, 0.0000000000000000000 ) ) ;
#195 = EDGE_LOOP ( 'NONE', ( #220 ) ) ;
#196 = AXIS2_PLACEMENT_3D ( 'NONE', #96, #71, #207 ) ;
#197 = EDGE_LOOP ( 'NONE', ( #78 ) ) ;
#198 = PLANE ( 'NONE',  #277 ) ;
#199 = CLOSED_SHELL ( 'NONE', ( #21, #118, #172, #242, #70, #280, #282, #288, #168, #93, #85, #297, #60, #338, #16, #367, #146 ) ) ;
#200 = UNCERTAINTY_MEASURE_WITH_UNIT (LENGTH_MEASURE( 1.000000000000000082E-05 ), #90, 'distance_accuracy_value', 'NONE');
#201 = DIRECTION ( 'NONE',  ( -1.000000000000000000, 0.0000000000000000000, 0.0000000000000000000 ) ) ;
#202 = SURFACE_SIDE_STYLE ('',( #4 ) ) ;
#203 = AXIS2_PLACEMENT_3D ( 'NONE', #76, #186, #181 ) ;
#204 = EDGE_LOOP ( 'NONE', ( #138 ) ) ;
#205 = EDGE_LOOP ( 'NONE', ( #110 ) ) ;
#206 =( NAMED_UNIT ( * ) PLANE_ANGLE_UNIT ( ) SI_UNIT ( $, .RADIAN. ) );
#207 = DIRECTION ( 'NONE',  ( 1.000000000000000000, 0.0000000000000000000, 0.0000000000000000000 ) ) ;
#208 = COLOUR_RGB ( '',0.7921568627450980005, 0.8196078431372548767, 0.9333333333333333481 ) ;
#209 = AXIS2_PLACEMENT_3D ( 'NONE', #236, #215, #98 ) ;
#210 = CIRCLE ( 'NONE', #379, 3.049999999999999822 ) ;
#211 = CARTESIAN_POINT ( 'NONE',  ( 1.665334536937730077E-14, 1.967176421757700034E-15, 27.00000000000000000 ) ) ;
#212 = FACE_OUTER_BOUND ( 'NONE', #351, .T. ) ;
#213 = EDGE_CURVE ( 'NONE', #139, #139, #38, .T. ) ;
#214 = CARTESIAN_POINT ( 'NONE',  ( 0.0000000000000000000, 0.0000000000000000000, 0.0000000000000000000 ) ) ;
#215 = DIRECTION ( 'NONE',  ( 0.0000000000000000000, 0.0000000000000000000, 1.000000000000000000 ) ) ;
#216 = DIRECTION ( 'NONE',  ( -0.8823529411768634700, 0.4705882352933810631, 0.0000000000000000000 ) ) ;
#217 = DIRECTION ( 'NONE',  ( 4.517509052065497474E-16, 3.614007241816906047E-17, 1.000000000000000000 ) ) ;
#218 = DIRECTION ( 'NONE',  ( 0.0000000000000000000, 0.0000000000000000000, -1.000000000000000000 ) ) ;
#219 = CARTESIAN_POINT ( 'NONE',  ( 3.330669073875470410E-15, -1.967176421757700034E-15, 36.00000000000000711 ) ) ;
#220 = ORIENTED_EDGE ( 'NONE', *, *, #325, .F. ) ;
#221 = DIRECTION ( 'NONE',  ( 1.000000000000000000, 0.0000000000000000000, 0.0000000000000000000 ) ) ;
#222 = AXIS2_PLACEMENT_3D ( 'NONE', #130, #48, #366 ) ;
#223 = CARTESIAN_POINT ( 'NONE',  ( 3.200006739894280638, 0.9619793736060050504, 36.00000000000000711 ) ) ;
#224 = FACE_BOUND ( 'NONE', #80, .T. ) ;
#225 = PLANE ( 'NONE',  #46 ) ;
#226 = AXIS2_PLACEMENT_3D ( 'NONE', #308, #272, #245 ) ;
#227 = VERTEX_POINT ( 'NONE', #255 ) ;
#228 = FACE_BOUND ( 'NONE', #197, .T. ) ;
#229 = FACE_OUTER_BOUND ( 'NONE', #205, .T. ) ;
#230 = ORIENTED_EDGE ( 'NONE', *, *, #357, .F. ) ;
#231 = FILL_AREA_STYLE ('',( #293 ) ) ;
#232 = AXIS2_PLACEMENT_3D ( 'NONE', #246, #107, #301 ) ;
#233 = EDGE_LOOP ( 'NONE', ( #51 ) ) ;
#234 = EDGE_CURVE ( 'NONE', #81, #81, #339, .T. ) ;
#235 = DIRECTION ( 'NONE',  ( 1.000000000000000000, 0.0000000000000000000, 0.0000000000000000000 ) ) ;
#236 = CARTESIAN_POINT ( 'NONE',  ( -6.068281639404199870E-06, 5.364187041604750128, 27.00000000000000000 ) ) ;
#237 = PLANE ( 'NONE',  #209 ) ;
#238 = DIRECTION ( 'NONE',  ( -4.279679444008079846E-16, -5.108407279705260228E-17, 1.000000000000000000 ) ) ;
#239 = EDGE_CURVE ( 'NONE', #286, #286, #67, .T. ) ;
#240 = FILL_AREA_STYLE_COLOUR ( '', #208 ) ;
#241 = DIRECTION ( 'NONE',  ( 0.0000000000000000000, 0.0000000000000000000, -1.000000000000000000 ) ) ;
#242 = ADVANCED_FACE ( 'NONE', ( #128, #183 ), #50, .T. ) ;
#243 = FACE_OUTER_BOUND ( 'NONE', #249, .T. ) ;
#244 = CARTESIAN_POINT ( 'NONE',  ( -0.0003396294620905400234, 5.313061659313540019, 37.00000000000000000 ) ) ;
#245 = DIRECTION ( 'NONE',  ( 1.000000000000000000, 0.0000000000000000000, 0.0000000000000000000 ) ) ;
#246 = CARTESIAN_POINT ( 'NONE',  ( -3.330669073875470252E-14, 6.765421556309539780E-16, 0.6999999999999999556 ) ) ;
#247 = EDGE_LOOP ( 'NONE', ( #346 ) ) ;
#248 = CARTESIAN_POINT ( 'NONE',  ( 5.250000000000003553, -1.967176421757700034E-15, 36.00000000000000711 ) ) ;
#249 = EDGE_LOOP ( 'NONE', ( #36 ) ) ;
#250 = EDGE_CURVE ( 'NONE', #58, #58, #136, .T. ) ;
#251 = ORIENTED_EDGE ( 'NONE', *, *, #332, .T. ) ;
#252 = CARTESIAN_POINT ( 'NONE',  ( 5.225000000000016520, 1.967176421757700034E-15, 36.00000000000000711 ) ) ;
#253 = ORIENTED_EDGE ( 'NONE', *, *, #234, .T. ) ;
#254 = AXIS2_PLACEMENT_3D ( 'NONE', #75, #267, #235 ) ;
#255 = CARTESIAN_POINT ( 'NONE',  ( 5.225000000000016520, 1.967176421757700034E-15, 27.00000000000000000 ) ) ;
#256 = FACE_OUTER_BOUND ( 'NONE', #233, .T. ) ;
#257 = CIRCLE ( 'NONE', #105, 2.875396152541260353 ) ;
#258 = ORIENTED_EDGE ( 'NONE', *, *, #262, .F. ) ;
#259 = DIRECTION ( 'NONE',  ( 0.0000000000000000000, 0.0000000000000000000, 1.000000000000000000 ) ) ;
#260 = CIRCLE ( 'NONE', #162, 0.9500000000000020650 ) ;
#261 = DIRECTION ( 'NONE',  ( -1.000000000000000000, 0.0000000000000000000, 0.0000000000000000000 ) ) ;
#262 = EDGE_CURVE ( 'NONE', #25, #25, #14, .T. ) ;
#263 = AXIS2_PLACEMENT_3D ( 'NONE', #69, #104, #43 ) ;
#264 = EDGE_LOOP ( 'NONE', ( #251 ) ) ;
#265 =( NAMED_UNIT ( * ) SI_UNIT ( $, .STERADIAN. ) SOLID_ANGLE_UNIT ( ) );
#266 = DIRECTION ( 'NONE',  ( -1.000000000000000000, 0.0000000000000000000, 0.0000000000000000000 ) ) ;
#267 = DIRECTION ( 'NONE',  ( 0.0000000000000000000, 0.0000000000000000000, 1.000000000000000000 ) ) ;
#268 = AXIS2_PLACEMENT_3D ( 'NONE', #302, #103, #159 ) ;
#269 = CARTESIAN_POINT ( 'NONE',  ( 6.068253755042720161E-06, 5.313581486200149584, 36.00000000000000711 ) ) ;
#270 = CARTESIAN_POINT ( 'NONE',  ( -2.099999999999970335, 0.0000000000000000000, 37.00000000000000000 ) ) ;
#271 = FACE_OUTER_BOUND ( 'NONE', #204, .T. ) ;
#272 = DIRECTION ( 'NONE',  ( 0.0000000000000000000, 0.0000000000000000000, 1.000000000000000000 ) ) ;
#273 = FACE_BOUND ( 'NONE', #274, .T. ) ;
#274 = EDGE_LOOP ( 'NONE', ( #190 ) ) ;
#275 = CIRCLE ( 'NONE', #298, 5.250000000000000000 ) ;
#276 = CARTESIAN_POINT ( 'NONE',  ( 0.9500000000000293765, 0.0000000000000000000, 37.00000000000000000 ) ) ;
#277 = AXIS2_PLACEMENT_3D ( 'NONE', #12, #148, #329 ) ;
#278 = VERTEX_POINT ( 'NONE', #248 ) ;
#279 = EDGE_LOOP ( 'NONE', ( #310 ) ) ;
#280 = ADVANCED_FACE ( 'NONE', ( #212, #45 ), #154, .T. ) ;
#281 = PRESENTATION_LAYER_ASSIGNMENT (  '', '', ( #74 ) ) ;
#282 = ADVANCED_FACE ( 'NONE', ( #303 ), #369, .T. ) ;
#283 = AXIS2_PLACEMENT_3D ( 'NONE', #269, #218, #15 ) ;
#284 = CARTESIAN_POINT ( 'NONE',  ( 2.249999999999998224, -6.197299617927140978E-15, 36.00000000000000711 ) ) ;
#285 = EDGE_LOOP ( 'NONE', ( #61 ) ) ;
#286 = VERTEX_POINT ( 'NONE', #53 ) ;
#287 = ORIENTED_EDGE ( 'NONE', *, *, #348, .T. ) ;
#288 = ADVANCED_FACE ( 'NONE', ( #49, #271 ), #371, .T. ) ;
#289 = VERTEX_POINT ( 'NONE', #11 ) ;
#290 = ORIENTED_EDGE ( 'NONE', *, *, #325, .T. ) ;
#291 = AXIS2_PLACEMENT_3D ( 'NONE', #309, #373, #108 ) ;
#292 = PRODUCT_DEFINITION_CONTEXT ( 'detailed design', #372, 'design' ) ;
#293 = FILL_AREA_STYLE_COLOUR ( '', #97 ) ;
#294 = CARTESIAN_POINT ( 'NONE',  ( 3.330669073875470410E-15, -1.967176421757700034E-15, 37.10000000000000142 ) ) ;
#295 = VERTEX_POINT ( 'NONE', #5 ) ;
#296 = ORIENTED_EDGE ( 'NONE', *, *, #374, .F. ) ;
#297 = ADVANCED_FACE ( 'NONE', ( #151, #17 ), #187, .T. ) ;
#298 = AXIS2_PLACEMENT_3D ( 'NONE', #219, #343, #221 ) ;
#299 = FILL_AREA_STYLE ('',( #240 ) ) ;
#300 = PRODUCT_CONTEXT ( 'NONE', #109, 'mechanical' ) ;
#301 = DIRECTION ( 'NONE',  ( -1.000000000000000000, 0.0000000000000000000, 0.0000000000000000000 ) ) ;
#302 = CARTESIAN_POINT ( 'NONE',  ( -3.556183125752454544E-14, 1.105886215935214523E-14, 26.30000000004883987 ) ) ;
#303 = FACE_OUTER_BOUND ( 'NONE', #247, .T. ) ;
#304 =( NAMED_UNIT ( * ) PLANE_ANGLE_UNIT ( ) SI_UNIT ( $, .RADIAN. ) );
#305 = AXIS2_PLACEMENT_3D ( 'NONE', #149, #340, #41 ) ;
#306 = DIRECTION ( 'NONE',  ( 1.000000000000000000, 0.0000000000000000000, -0.0000000000000000000 ) ) ;
#307 = DIRECTION ( 'NONE',  ( -0.0000000000000000000, -0.0000000000000000000, -1.000000000000000000 ) ) ;
#308 = CARTESIAN_POINT ( 'NONE',  ( 3.330669073875470410E-15, -1.967176421757700034E-15, 37.00000000000000000 ) ) ;
#309 = CARTESIAN_POINT ( 'NONE',  ( -2.099999999999970335, 0.0000000000000000000, 35.98399999999999466 ) ) ;
#310 = ORIENTED_EDGE ( 'NONE', *, *, #141, .T. ) ;
#311 = VERTEX_POINT ( 'NONE', #276 ) ;
#312 = EDGE_LOOP ( 'NONE', ( #115 ) ) ;
#313 = MECHANICAL_DESIGN_GEOMETRIC_PRESENTATION_REPRESENTATION (  '', ( #126 ), #191 ) ;
#314 = EDGE_CURVE ( 'NONE', #79, #79, #330, .T. ) ;
#315 = DIRECTION ( 'NONE',  ( -0.0000000000000000000, -0.0000000000000000000, 1.000000000000000000 ) ) ;
#316 = EDGE_LOOP ( 'NONE', ( #290 ) ) ;
#317 = EDGE_CURVE ( 'NONE', #311, #311, #210, .T. ) ;
#318 = VERTEX_POINT ( 'NONE', #134 ) ;
#319 = DIRECTION ( 'NONE',  ( 1.000000000000000000, 0.0000000000000000000, -0.0000000000000000000 ) ) ;
#320 = CARTESIAN_POINT ( 'NONE',  ( -2.099999999999970335, 0.0000000000000000000, 35.98399999999999466 ) ) ;
#321 = FACE_OUTER_BOUND ( 'NONE', #316, .T. ) ;
#322 =( NAMED_UNIT ( * ) PLANE_ANGLE_UNIT ( ) SI_UNIT ( $, .RADIAN. ) );
#323 = DIRECTION ( 'NONE',  ( 0.0000000000000000000, 0.0000000000000000000, -1.000000000000000000 ) ) ;
#324 = CONICAL_SURFACE ( 'NONE', #268, 5.999999999878144585, 0.7853981633759525849 ) ;
#325 = EDGE_CURVE ( 'NONE', #158, #158, #356, .T. ) ;
#326 = PRESENTATION_STYLE_ASSIGNMENT (( #147 ) ) ;
#327 = ORIENTED_EDGE ( 'NONE', *, *, #317, .T. ) ;
#328 = AXIS2_PLACEMENT_3D ( 'NONE', #354, #9, #201 ) ;
#329 = DIRECTION ( 'NONE',  ( 1.000000000000000000, 0.0000000000000000000, -0.0000000000000000000 ) ) ;
#330 = CIRCLE ( 'NONE', #347, 5.349999999999999645 ) ;
#331 = SURFACE_STYLE_USAGE ( .BOTH. , #365 ) ;
#332 = EDGE_CURVE ( 'NONE', #278, #278, #275, .T. ) ;
#333 = FACE_OUTER_BOUND ( 'NONE', #65, .T. ) ;
#334 = AXIS2_PLACEMENT_3D ( 'NONE', #294, #259, #119 ) ;
#335 = FACE_OUTER_BOUND ( 'NONE', #195, .T. ) ;
#336 = MECHANICAL_DESIGN_GEOMETRIC_PRESENTATION_REPRESENTATION (  '', ( #74 ), #28 ) ;
#337 = DIRECTION ( 'NONE',  ( -1.000000000000000000, 0.0000000000000000000, 0.0000000000000000000 ) ) ;
#338 = ADVANCED_FACE ( 'NONE', ( #345 ), #352, .T. ) ;
#339 = CIRCLE ( 'NONE', #226, 5.250000000000000000 ) ;
#340 = DIRECTION ( 'NONE',  ( -0.0000000000000000000, -0.0000000000000000000, -1.000000000000000000 ) ) ;
#341 = CARTESIAN_POINT ( 'NONE',  ( -2.099999999999970335, 0.0000000000000000000, 37.00000000000000000 ) ) ;
#342 = ORIENTED_EDGE ( 'NONE', *, *, #7, .T. ) ;
#343 = DIRECTION ( 'NONE',  ( -0.0000000000000000000, -0.0000000000000000000, -1.000000000000000000 ) ) ;
#344 = EDGE_LOOP ( 'NONE', ( #164 ) ) ;
#345 = FACE_OUTER_BOUND ( 'NONE', #312, .T. ) ;
#346 = ORIENTED_EDGE ( 'NONE', *, *, #348, .F. ) ;
#347 = AXIS2_PLACEMENT_3D ( 'NONE', #129, #156, #266 ) ;
#348 = EDGE_CURVE ( 'NONE', #112, #112, #165, .T. ) ;
#349 = ORIENTED_EDGE ( 'NONE', *, *, #314, .F. ) ;
#350 = DIRECTION ( 'NONE',  ( 0.0000000000000000000, 0.0000000000000000000, 1.000000000000000000 ) ) ;
#351 = EDGE_LOOP ( 'NONE', ( #349 ) ) ;
#352 = PLANE ( 'NONE',  #123 ) ;
#353 = FACE_OUTER_BOUND ( 'NONE', #88, .T. ) ;
#354 = CARTESIAN_POINT ( 'NONE',  ( 3.200000000000000178, -6.197299617927140978E-15, 36.50000000000000000 ) ) ;
#355 = ORIENTED_EDGE ( 'NONE', *, *, #239, .F. ) ;
#356 = CIRCLE ( 'NONE', #291, 2.149999999999999911 ) ;
#357 = EDGE_CURVE ( 'NONE', #295, #295, #131, .T. ) ;
#358 =( LENGTH_UNIT ( ) NAMED_UNIT ( * ) SI_UNIT ( .MILLI., .METRE. ) );
#359 = DIRECTION ( 'NONE',  ( 1.000000000000000000, 0.0000000000000000000, 0.0000000000000000000 ) ) ;
#360 = APPLICATION_PROTOCOL_DEFINITION ( 'draft international standard', 'automotive_design', 1998, #109 ) ;
#361 = PRESENTATION_STYLE_ASSIGNMENT (( #331 ) ) ;
#362 = AXIS2_PLACEMENT_3D ( 'NONE', #59, #33, #359 ) ;
#363 = CYLINDRICAL_SURFACE ( 'NONE', #196, 2.149999999999999911 ) ;
#364 = CARTESIAN_POINT ( 'NONE',  ( -3.209238430557093125E-14, 1.062518129035794345E-14, 0.6999999999948183227 ) ) ;
#365 = SURFACE_SIDE_STYLE ('',( #39 ) ) ;
#366 = DIRECTION ( 'NONE',  ( 0.0000000000000000000, 1.000000000000000000, 0.0000000000000000000 ) ) ;
#367 = ADVANCED_FACE ( 'NONE', ( #224, #137 ), #114, .T. ) ;
#368 = DIRECTION ( 'NONE',  ( -0.0000000000000000000, -0.0000000000000000000, -1.000000000000000000 ) ) ;
#369 = PLANE ( 'NONE',  #263 ) ;
#370 = AXIS2_PLACEMENT_3D ( 'NONE', #1, #117, #169 ) ;
#371 = CYLINDRICAL_SURFACE ( 'NONE', #232, 6.000000000000000000 ) ;
#372 = APPLICATION_CONTEXT ( 'automotive_design' ) ;
#373 = DIRECTION ( 'NONE',  ( 0.0000000000000000000, 0.0000000000000000000, 1.000000000000000000 ) ) ;
#374 = EDGE_CURVE ( 'NONE', #289, #289, #257, .T. ) ;
#375 = ORIENTED_EDGE ( 'NONE', *, *, #7, .F. ) ;
#376 = DIRECTION ( 'NONE',  ( 1.000000000000000000, 0.0000000000000000000, -0.0000000000000000000 ) ) ;
#377 = DIRECTION ( 'NONE',  ( 0.0000000000000000000, 0.0000000000000000000, 1.000000000000000000 ) ) ;
#378 = EDGE_LOOP ( 'NONE', ( #193 ) ) ;
#379 = AXIS2_PLACEMENT_3D ( 'NONE', #341, #20, #77 ) ;
#380 = CARTESIAN_POINT ( 'NONE',  ( 5.250000000000003553, -1.967176421757700034E-15, 37.00000000000000000 ) ) ;
ENDSEC;
END-ISO-10303-21;
