ISO-10303-21;
HEADER;
FILE_DESCRIPTION(('STEP AP203'),'1');
FILE_NAME('PT5S3CB-L.stp','2015-10-16T07:12:30',(' '),(' '),'Spatial InterOp 3D',' ',' ');
FILE_SCHEMA(('CONFIG_CONTROL_DESIGN'));
ENDSEC;
DATA;
#1=DESIGN_CONTEXT('',#49,'design');
#2=APPLICATION_PROTOCOL_DEFINITION('INTERNATIONAL STANDARD','config_control_design',1994,#49);
#3=PRODUCT_CATEGORY_RELATIONSHIP('NONE','NONE',#50,#51);
#4=DATE_AND_TIME(#52,#53);
#5=DATE_TIME_ROLE('creation_date');
#6=DATE_TIME_ROLE('classification_date');
#7=PERSON_AND_ORGANIZATION_ROLE('creator');
#8=PERSON_AND_ORGANIZATION_ROLE('design_supplier');
#9=PERSON_AND_ORGANIZATION_ROLE('classification_officer');
#10=PERSON_AND_ORGANIZATION_ROLE('design_owner');
#11=APPROVAL_PERSON_ORGANIZATION(#54,#55,#56);
#12=APPROVAL_DATE_TIME(#4,#55);
#13=CC_DESIGN_APPROVAL(#55,(#57,#58,#59));
#14=CC_DESIGN_DATE_AND_TIME_ASSIGNMENT(#4,#5,(#59));
#15=CC_DESIGN_DATE_AND_TIME_ASSIGNMENT(#4,#6,(#57));
#16=CC_DESIGN_PERSON_AND_ORGANIZATION_ASSIGNMENT(#54,#10,(#60));
#17=CC_DESIGN_PERSON_AND_ORGANIZATION_ASSIGNMENT(#54,#7,(#59));
#18=CC_DESIGN_PERSON_AND_ORGANIZATION_ASSIGNMENT(#54,#7,(#58));
#19=CC_DESIGN_PERSON_AND_ORGANIZATION_ASSIGNMENT(#54,#8,(#58));
#20=CC_DESIGN_SECURITY_CLASSIFICATION(#57,(#58));
#21=CC_DESIGN_PERSON_AND_ORGANIZATION_ASSIGNMENT(#54,#9,(#57));
#22=SHAPE_DEFINITION_REPRESENTATION(#61,#62);
#23=DESIGN_CONTEXT('',#63,'design');
#24=APPLICATION_PROTOCOL_DEFINITION('INTERNATIONAL STANDARD','config_control_design',1994,#63);
#25=PRODUCT_CATEGORY_RELATIONSHIP('NONE','NONE',#64,#65);
#26=DATE_AND_TIME(#66,#67);
#27=DATE_TIME_ROLE('creation_date');
#28=DATE_TIME_ROLE('classification_date');
#29=PERSON_AND_ORGANIZATION_ROLE('creator');
#30=PERSON_AND_ORGANIZATION_ROLE('design_supplier');
#31=PERSON_AND_ORGANIZATION_ROLE('classification_officer');
#32=PERSON_AND_ORGANIZATION_ROLE('design_owner');
#33=APPROVAL_PERSON_ORGANIZATION(#68,#69,#70);
#34=APPROVAL_DATE_TIME(#26,#69);
#35=CC_DESIGN_APPROVAL(#69,(#71,#72,#73));
#36=CC_DESIGN_DATE_AND_TIME_ASSIGNMENT(#26,#27,(#73));
#37=CC_DESIGN_DATE_AND_TIME_ASSIGNMENT(#26,#28,(#71));
#38=CC_DESIGN_PERSON_AND_ORGANIZATION_ASSIGNMENT(#68,#32,(#74));
#39=CC_DESIGN_PERSON_AND_ORGANIZATION_ASSIGNMENT(#68,#29,(#73));
#40=CC_DESIGN_PERSON_AND_ORGANIZATION_ASSIGNMENT(#68,#29,(#72));
#41=CC_DESIGN_PERSON_AND_ORGANIZATION_ASSIGNMENT(#68,#30,(#72));
#42=CC_DESIGN_SECURITY_CLASSIFICATION(#71,(#72));
#43=CC_DESIGN_PERSON_AND_ORGANIZATION_ASSIGNMENT(#68,#31,(#71));
#44=SHAPE_DEFINITION_REPRESENTATION(#75,#76);
#45= (GEOMETRIC_REPRESENTATION_CONTEXT(3)GLOBAL_UNCERTAINTY_ASSIGNED_CONTEXT((#79))GLOBAL_UNIT_ASSIGNED_CONTEXT((#81,#82,#83))REPRESENTATION_CONTEXT('NONE','WORKSPACE'));
#49=APPLICATION_CONTEXT('CONFIGURATION CONTROLLED 3D DESIGNS OF MECHANICAL PARTS AND ASSEMBLIES');
#50=PRODUCT_CATEGORY('part','NONE');
#51=PRODUCT_RELATED_PRODUCT_CATEGORY('detail',' ',(#60));
#52=CALENDAR_DATE(2015,16,9);
#53=LOCAL_TIME(16,12,30.0,#85);
#54=PERSON_AND_ORGANIZATION(#86,#87);
#55=APPROVAL(#88,'SOLID MODEL');
#56=APPROVAL_ROLE('APPROVED');
#57=SECURITY_CLASSIFICATION('','',#89);
#58=PRODUCT_DEFINITION_FORMATION_WITH_SPECIFIED_SOURCE(' ','NONE',#60,.NOT_KNOWN.);
#59=PRODUCT_DEFINITION('NONE','NONE',#58,#1);
#60=PRODUCT('1','1','PART-1-DESC',(#90));
#61=PRODUCT_DEFINITION_SHAPE('NONE','NONE',#59);
#62=ADVANCED_BREP_SHAPE_REPRESENTATION('1',(#91,#92),#45);
#63=APPLICATION_CONTEXT('CONFIGURATION CONTROLLED 3D DESIGNS OF MECHANICAL PARTS AND ASSEMBLIES');
#64=PRODUCT_CATEGORY('part','NONE');
#65=PRODUCT_RELATED_PRODUCT_CATEGORY('detail',' ',(#74));
#66=CALENDAR_DATE(2015,16,9);
#67=LOCAL_TIME(16,12,30.0,#93);
#68=PERSON_AND_ORGANIZATION(#94,#95);
#69=APPROVAL(#96,'SOLID MODEL');
#70=APPROVAL_ROLE('APPROVED');
#71=SECURITY_CLASSIFICATION('','',#97);
#72=PRODUCT_DEFINITION_FORMATION_WITH_SPECIFIED_SOURCE(' ','NONE',#74,.NOT_KNOWN.);
#73=PRODUCT_DEFINITION('NONE','NONE',#72,#23);
#74=PRODUCT('2','2','PART-2-DESC',(#98));
#75=PRODUCT_DEFINITION_SHAPE('NONE','NONE',#73);
#76=ADVANCED_BREP_SHAPE_REPRESENTATION('2',(#99,#100),#45);
#79=UNCERTAINTY_MEASURE_WITH_UNIT(LENGTH_MEASURE(0.001),#81,'','');
#81= (CONVERSION_BASED_UNIT('MILLIMETRE',#103)LENGTH_UNIT()NAMED_UNIT(#106));
#82= (NAMED_UNIT(#108)PLANE_ANGLE_UNIT()SI_UNIT($,.RADIAN.));
#83= (NAMED_UNIT(#108)SOLID_ANGLE_UNIT()SI_UNIT($,.STERADIAN.));
#85=COORDINATED_UNIVERSAL_TIME_OFFSET(9,0,.AHEAD.);
#86=PERSON('','UNSPECIFIED',$,$,$,$);
#87=ORGANIZATION('UNSPECIFIED','UNSPECIFIED','UNSPECIFIED');
#88=APPROVAL_STATUS('approved');
#89=SECURITY_CLASSIFICATION_LEVEL('unclassified');
#90=MECHANICAL_CONTEXT('',#49,'mechanical');
#91=MANIFOLD_SOLID_BREP('1',#114);
#92=AXIS2_PLACEMENT_3D('',#115,#116,#117);
#93=COORDINATED_UNIVERSAL_TIME_OFFSET(9,0,.AHEAD.);
#94=PERSON('','UNSPECIFIED',$,$,$,$);
#95=ORGANIZATION('UNSPECIFIED','UNSPECIFIED','UNSPECIFIED');
#96=APPROVAL_STATUS('approved');
#97=SECURITY_CLASSIFICATION_LEVEL('unclassified');
#98=MECHANICAL_CONTEXT('',#63,'mechanical');
#99=MANIFOLD_SOLID_BREP('2',#118);
#100=AXIS2_PLACEMENT_3D('',#119,#120,#121);
#103=LENGTH_MEASURE_WITH_UNIT(LENGTH_MEASURE(1.0),#122);
#106=DIMENSIONAL_EXPONENTS(1.0,0.0,0.0,0.0,0.0,0.0,0.0);
#108=DIMENSIONAL_EXPONENTS(0.0,0.0,0.0,0.0,0.0,0.0,0.0);
#114=CLOSED_SHELL('',(#123,#124,#125,#126,#127,#128,#129,#130,#131,#132));
#115=CARTESIAN_POINT('',(0.0,0.0,0.0));
#116=DIRECTION('',(0.0,0.0,1.0));
#117=DIRECTION('',(1.0,0.0,0.0));
#118=CLOSED_SHELL('',(#133,#134,#135,#136,#137,#138,#139,#140,#141,#142,#143));
#119=CARTESIAN_POINT('',(0.0,0.0,0.0));
#120=DIRECTION('',(0.0,0.0,1.0));
#121=DIRECTION('',(1.0,0.0,0.0));
#122= (NAMED_UNIT(#106)LENGTH_UNIT()SI_UNIT(.MILLI.,.METRE.));
#123=ADVANCED_FACE('',(#145),#146,.T.);
#124=ADVANCED_FACE('',(#147),#148,.T.);
#125=ADVANCED_FACE('',(#149),#150,.T.);
#126=ADVANCED_FACE('',(#151),#152,.F.);
#127=ADVANCED_FACE('',(#153),#154,.T.);
#128=ADVANCED_FACE('',(#155,#156),#157,.T.);
#129=ADVANCED_FACE('',(#158),#159,.T.);
#130=ADVANCED_FACE('',(#160),#161,.T.);
#131=ADVANCED_FACE('',(#162),#163,.T.);
#132=ADVANCED_FACE('',(#164,#165),#166,.F.);
#133=ADVANCED_FACE('',(#167),#168,.T.);
#134=ADVANCED_FACE('',(#169),#170,.T.);
#135=ADVANCED_FACE('',(#171),#172,.T.);
#136=ADVANCED_FACE('',(#173),#174,.T.);
#137=ADVANCED_FACE('',(#175),#176,.T.);
#138=ADVANCED_FACE('',(#177),#178,.T.);
#139=ADVANCED_FACE('',(#179,#180),#181,.F.);
#140=ADVANCED_FACE('',(#182),#183,.T.);
#141=ADVANCED_FACE('',(#184),#185,.T.);
#142=ADVANCED_FACE('',(#186,#187),#188,.F.);
#143=ADVANCED_FACE('',(#189),#190,.T.);
#145=FACE_OUTER_BOUND('',#191,.T.);
#146=CYLINDRICAL_SURFACE('',#192,2.4);
#147=FACE_OUTER_BOUND('',#193,.T.);
#148=CYLINDRICAL_SURFACE('',#194,1.4);
#149=FACE_OUTER_BOUND('',#195,.T.);
#150=CYLINDRICAL_SURFACE('',#196,1.4);
#151=FACE_OUTER_BOUND('',#197,.T.);
#152=PLANE('',#198);
#153=FACE_OUTER_BOUND('',#199,.T.);
#154=PLANE('',#200);
#155=FACE_OUTER_BOUND('',#201,.T.);
#156=FACE_BOUND('',#202,.T.);
#157=PLANE('',#203);
#158=FACE_OUTER_BOUND('',#204,.T.);
#159=CYLINDRICAL_SURFACE('',#205,1.4);
#160=FACE_OUTER_BOUND('',#206,.T.);
#161=CYLINDRICAL_SURFACE('',#207,1.4);
#162=FACE_OUTER_BOUND('',#208,.T.);
#163=CYLINDRICAL_SURFACE('',#209,2.4);
#164=FACE_OUTER_BOUND('',#210,.T.);
#165=FACE_BOUND('',#211,.T.);
#166=PLANE('',#212);
#167=FACE_OUTER_BOUND('',#213,.T.);
#168=CYLINDRICAL_SURFACE('',#214,2.5);
#169=FACE_OUTER_BOUND('',#215,.T.);
#170=CYLINDRICAL_SURFACE('',#216,0.75);
#171=FACE_OUTER_BOUND('',#217,.T.);
#172=SPHERICAL_SURFACE('',#218,2.0);
#173=FACE_OUTER_BOUND('',#219,.T.);
#174=CYLINDRICAL_SURFACE('',#220,1.4);
#175=FACE_OUTER_BOUND('',#221,.T.);
#176=CYLINDRICAL_SURFACE('',#222,1.4);
#177=FACE_OUTER_BOUND('',#223,.T.);
#178=PLANE('',#224);
#179=FACE_OUTER_BOUND('',#225,.T.);
#180=FACE_BOUND('',#226,.T.);
#181=PLANE('',#227);
#182=FACE_OUTER_BOUND('',#228,.T.);
#183=SPHERICAL_SURFACE('',#229,2.0);
#184=FACE_OUTER_BOUND('',#230,.T.);
#185=CYLINDRICAL_SURFACE('',#231,0.75);
#186=FACE_BOUND('',#232,.T.);
#187=FACE_OUTER_BOUND('',#233,.T.);
#188=PLANE('',#234);
#189=FACE_OUTER_BOUND('',#235,.T.);
#190=CYLINDRICAL_SURFACE('',#236,2.5);
#191=EDGE_LOOP('',(#237,#238,#239,#240));
#192=AXIS2_PLACEMENT_3D('',#241,#242,#243);
#193=EDGE_LOOP('',(#244,#245,#246,#247));
#194=AXIS2_PLACEMENT_3D('',#248,#249,#250);
#195=EDGE_LOOP('',(#251,#252,#253,#254));
#196=AXIS2_PLACEMENT_3D('',#255,#256,#257);
#197=EDGE_LOOP('',(#258,#259));
#198=AXIS2_PLACEMENT_3D('',#260,#261,#262);
#199=EDGE_LOOP('',(#263,#264));
#200=AXIS2_PLACEMENT_3D('',#265,#266,#267);
#201=EDGE_LOOP('',(#268,#269));
#202=EDGE_LOOP('',(#270,#271));
#203=AXIS2_PLACEMENT_3D('',#272,#273,#274);
#204=EDGE_LOOP('',(#275,#276,#277,#278));
#205=AXIS2_PLACEMENT_3D('',#279,#280,#281);
#206=EDGE_LOOP('',(#282,#283,#284,#285));
#207=AXIS2_PLACEMENT_3D('',#286,#287,#288);
#208=EDGE_LOOP('',(#289,#290,#291,#292));
#209=AXIS2_PLACEMENT_3D('',#293,#294,#295);
#210=EDGE_LOOP('',(#296,#297));
#211=EDGE_LOOP('',(#298,#299));
#212=AXIS2_PLACEMENT_3D('',#300,#301,#302);
#213=EDGE_LOOP('',(#303,#304,#305,#306));
#214=AXIS2_PLACEMENT_3D('',#307,#308,#309);
#215=EDGE_LOOP('',(#310,#311,#312,#313,#314));
#216=AXIS2_PLACEMENT_3D('',#315,#316,#317);
#217=EDGE_LOOP('',(#318,#319,#320,#321));
#218=AXIS2_PLACEMENT_3D('',#322,#323,#324);
#219=EDGE_LOOP('',(#325,#326,#327,#328));
#220=AXIS2_PLACEMENT_3D('',#329,#330,#331);
#221=EDGE_LOOP('',(#332,#333,#334,#335));
#222=AXIS2_PLACEMENT_3D('',#336,#337,#338);
#223=EDGE_LOOP('',(#339,#340));
#224=AXIS2_PLACEMENT_3D('',#341,#342,#343);
#225=EDGE_LOOP('',(#344,#345));
#226=EDGE_LOOP('',(#346,#347));
#227=AXIS2_PLACEMENT_3D('',#348,#349,#350);
#228=EDGE_LOOP('',(#351,#352,#353,#354));
#229=AXIS2_PLACEMENT_3D('',#355,#356,#357);
#230=EDGE_LOOP('',(#358,#359,#360,#361,#362));
#231=AXIS2_PLACEMENT_3D('',#363,#364,#365);
#232=EDGE_LOOP('',(#366,#367));
#233=EDGE_LOOP('',(#368,#369));
#234=AXIS2_PLACEMENT_3D('',#370,#371,#372);
#235=EDGE_LOOP('',(#373,#374,#375,#376));
#236=AXIS2_PLACEMENT_3D('',#377,#378,#379);
#237=ORIENTED_EDGE('',*,*,#380,.F.);
#238=ORIENTED_EDGE('',*,*,#381,.T.);
#239=ORIENTED_EDGE('',*,*,#382,.F.);
#240=ORIENTED_EDGE('',*,*,#383,.F.);
#241=CARTESIAN_POINT('',(163.5,0.0,0.0));
#242=DIRECTION('',(1.0,0.0,-0.0));
#243=DIRECTION('',(0.0,0.0,1.0));
#244=ORIENTED_EDGE('',*,*,#384,.F.);
#245=ORIENTED_EDGE('',*,*,#385,.T.);
#246=ORIENTED_EDGE('',*,*,#386,.F.);
#247=ORIENTED_EDGE('',*,*,#387,.F.);
#248=CARTESIAN_POINT('',(173.5,0.0,0.0));
#249=DIRECTION('',(1.0,0.0,-0.0));
#250=DIRECTION('',(0.0,0.0,1.0));
#251=ORIENTED_EDGE('',*,*,#388,.F.);
#252=ORIENTED_EDGE('',*,*,#389,.T.);
#253=ORIENTED_EDGE('',*,*,#390,.F.);
#254=ORIENTED_EDGE('',*,*,#391,.F.);
#255=CARTESIAN_POINT('',(138.5,0.0,0.0));
#256=DIRECTION('',(1.0,0.0,-0.0));
#257=DIRECTION('',(0.0,0.0,1.0));
#258=ORIENTED_EDGE('',*,*,#392,.F.);
#259=ORIENTED_EDGE('',*,*,#389,.F.);
#260=CARTESIAN_POINT('',(82.0,0.0,0.0));
#261=DIRECTION('',(1.0,0.0,0.0));
#262=DIRECTION('',(0.0,0.0,-1.0));
#263=ORIENTED_EDGE('',*,*,#393,.T.);
#264=ORIENTED_EDGE('',*,*,#387,.T.);
#265=CARTESIAN_POINT('',(173.5,0.0,0.0));
#266=DIRECTION('',(1.0,0.0,0.0));
#267=DIRECTION('',(0.0,0.0,-1.0));
#268=ORIENTED_EDGE('',*,*,#394,.T.);
#269=ORIENTED_EDGE('',*,*,#383,.T.);
#270=ORIENTED_EDGE('',*,*,#395,.F.);
#271=ORIENTED_EDGE('',*,*,#385,.F.);
#272=CARTESIAN_POINT('',(163.5,0.0,0.0));
#273=DIRECTION('',(1.0,0.0,0.0));
#274=DIRECTION('',(0.0,0.0,-1.0));
#275=ORIENTED_EDGE('',*,*,#388,.T.);
#276=ORIENTED_EDGE('',*,*,#396,.F.);
#277=ORIENTED_EDGE('',*,*,#390,.T.);
#278=ORIENTED_EDGE('',*,*,#392,.T.);
#279=CARTESIAN_POINT('',(138.5,0.0,0.0));
#280=DIRECTION('',(1.0,0.0,-0.0));
#281=DIRECTION('',(0.0,0.0,1.0));
#282=ORIENTED_EDGE('',*,*,#384,.T.);
#283=ORIENTED_EDGE('',*,*,#393,.F.);
#284=ORIENTED_EDGE('',*,*,#386,.T.);
#285=ORIENTED_EDGE('',*,*,#395,.T.);
#286=CARTESIAN_POINT('',(173.5,0.0,0.0));
#287=DIRECTION('',(1.0,0.0,-0.0));
#288=DIRECTION('',(0.0,0.0,1.0));
#289=ORIENTED_EDGE('',*,*,#380,.T.);
#290=ORIENTED_EDGE('',*,*,#394,.F.);
#291=ORIENTED_EDGE('',*,*,#382,.T.);
#292=ORIENTED_EDGE('',*,*,#397,.T.);
#293=CARTESIAN_POINT('',(163.5,0.0,0.0));
#294=DIRECTION('',(1.0,0.0,-0.0));
#295=DIRECTION('',(0.0,0.0,1.0));
#296=ORIENTED_EDGE('',*,*,#397,.F.);
#297=ORIENTED_EDGE('',*,*,#381,.F.);
#298=ORIENTED_EDGE('',*,*,#396,.T.);
#299=ORIENTED_EDGE('',*,*,#391,.T.);
#300=CARTESIAN_POINT('',(138.5,0.0,0.0));
#301=DIRECTION('',(1.0,0.0,0.0));
#302=DIRECTION('',(0.0,0.0,-1.0));
#303=ORIENTED_EDGE('',*,*,#398,.F.);
#304=ORIENTED_EDGE('',*,*,#399,.F.);
#305=ORIENTED_EDGE('',*,*,#400,.F.);
#306=ORIENTED_EDGE('',*,*,#401,.T.);
#307=CARTESIAN_POINT('',(0.0,0.0,0.0));
#308=DIRECTION('',(1.0,0.0,-0.0));
#309=DIRECTION('',(0.0,0.0,1.0));
#310=ORIENTED_EDGE('',*,*,#402,.F.);
#311=ORIENTED_EDGE('',*,*,#403,.F.);
#312=ORIENTED_EDGE('',*,*,#404,.F.);
#313=ORIENTED_EDGE('',*,*,#405,.F.);
#314=ORIENTED_EDGE('',*,*,#406,.T.);
#315=CARTESIAN_POINT('',(0.0,0.0,0.0));
#316=DIRECTION('',(1.0,0.0,-0.0));
#317=DIRECTION('',(0.0,0.0,1.0));
#318=ORIENTED_EDGE('',*,*,#407,.F.);
#319=ORIENTED_EDGE('',*,*,#408,.T.);
#320=ORIENTED_EDGE('',*,*,#404,.T.);
#321=ORIENTED_EDGE('',*,*,#409,.F.);
#322=CARTESIAN_POINT('',(1.99999999999978,9.35000044781972E-007,0.0));
#323=DIRECTION('',(-1.0,-0.0,-0.0));
#324=DIRECTION('',(0.0,1.0,0.0));
#325=ORIENTED_EDGE('',*,*,#410,.F.);
#326=ORIENTED_EDGE('',*,*,#411,.T.);
#327=ORIENTED_EDGE('',*,*,#412,.F.);
#328=ORIENTED_EDGE('',*,*,#413,.F.);
#329=CARTESIAN_POINT('',(138.5,0.0,0.0));
#330=DIRECTION('',(1.0,0.0,-0.0));
#331=DIRECTION('',(0.0,0.0,1.0));
#332=ORIENTED_EDGE('',*,*,#410,.T.);
#333=ORIENTED_EDGE('',*,*,#414,.F.);
#334=ORIENTED_EDGE('',*,*,#412,.T.);
#335=ORIENTED_EDGE('',*,*,#415,.T.);
#336=CARTESIAN_POINT('',(138.5,0.0,0.0));
#337=DIRECTION('',(1.0,0.0,-0.0));
#338=DIRECTION('',(0.0,0.0,1.0));
#339=ORIENTED_EDGE('',*,*,#414,.T.);
#340=ORIENTED_EDGE('',*,*,#413,.T.);
#341=CARTESIAN_POINT('',(80.0,0.0,0.0));
#342=DIRECTION('',(1.0,0.0,0.0));
#343=DIRECTION('',(0.0,0.0,-1.0));
#344=ORIENTED_EDGE('',*,*,#416,.F.);
#345=ORIENTED_EDGE('',*,*,#401,.F.);
#346=ORIENTED_EDGE('',*,*,#411,.F.);
#347=ORIENTED_EDGE('',*,*,#415,.F.);
#348=CARTESIAN_POINT('',(18.5,2.5,0.0));
#349=DIRECTION('',(-1.0,0.0,0.0));
#350=DIRECTION('',(0.0,0.0,1.0));
#351=ORIENTED_EDGE('',*,*,#407,.T.);
#352=ORIENTED_EDGE('',*,*,#409,.T.);
#353=ORIENTED_EDGE('',*,*,#403,.T.);
#354=ORIENTED_EDGE('',*,*,#417,.T.);
#355=CARTESIAN_POINT('',(1.99999999999978,9.35000044781972E-007,0.0));
#356=DIRECTION('',(-1.0,-0.0,-0.0));
#357=DIRECTION('',(0.0,1.0,0.0));
#358=ORIENTED_EDGE('',*,*,#402,.T.);
#359=ORIENTED_EDGE('',*,*,#418,.T.);
#360=ORIENTED_EDGE('',*,*,#405,.T.);
#361=ORIENTED_EDGE('',*,*,#408,.F.);
#362=ORIENTED_EDGE('',*,*,#417,.F.);
#363=CARTESIAN_POINT('',(0.0,0.0,0.0));
#364=DIRECTION('',(1.0,0.0,-0.0));
#365=DIRECTION('',(0.0,0.0,1.0));
#366=ORIENTED_EDGE('',*,*,#418,.F.);
#367=ORIENTED_EDGE('',*,*,#406,.F.);
#368=ORIENTED_EDGE('',*,*,#419,.T.);
#369=ORIENTED_EDGE('',*,*,#399,.T.);
#370=CARTESIAN_POINT('',(1.5,2.5,0.0));
#371=DIRECTION('',(1.0,0.0,0.0));
#372=DIRECTION('',(0.0,0.0,-1.0));
#373=ORIENTED_EDGE('',*,*,#398,.T.);
#374=ORIENTED_EDGE('',*,*,#416,.T.);
#375=ORIENTED_EDGE('',*,*,#400,.T.);
#376=ORIENTED_EDGE('',*,*,#419,.F.);
#377=CARTESIAN_POINT('',(0.0,0.0,0.0));
#378=DIRECTION('',(1.0,0.0,-0.0));
#379=DIRECTION('',(0.0,0.0,1.0));
#380=EDGE_CURVE('',#420,#421,#422,.T.);
#381=EDGE_CURVE('',#420,#423,#424,.T.);
#382=EDGE_CURVE('',#425,#423,#426,.T.);
#383=EDGE_CURVE('',#421,#425,#427,.T.);
#384=EDGE_CURVE('',#428,#429,#430,.T.);
#385=EDGE_CURVE('',#428,#431,#432,.T.);
#386=EDGE_CURVE('',#433,#431,#434,.T.);
#387=EDGE_CURVE('',#429,#433,#435,.T.);
#388=EDGE_CURVE('',#436,#437,#438,.T.);
#389=EDGE_CURVE('',#436,#439,#440,.T.);
#390=EDGE_CURVE('',#441,#439,#442,.T.);
#391=EDGE_CURVE('',#437,#441,#443,.T.);
#392=EDGE_CURVE('',#439,#436,#444,.T.);
#393=EDGE_CURVE('',#433,#429,#445,.T.);
#394=EDGE_CURVE('',#425,#421,#446,.T.);
#395=EDGE_CURVE('',#431,#428,#447,.T.);
#396=EDGE_CURVE('',#441,#437,#448,.T.);
#397=EDGE_CURVE('',#423,#420,#449,.T.);
#398=EDGE_CURVE('',#450,#451,#452,.T.);
#399=EDGE_CURVE('',#453,#450,#454,.T.);
#400=EDGE_CURVE('',#455,#453,#456,.T.);
#401=EDGE_CURVE('',#455,#451,#457,.T.);
#402=EDGE_CURVE('',#458,#459,#460,.T.);
#403=EDGE_CURVE('',#461,#458,#462,.T.);
#404=EDGE_CURVE('',#463,#461,#464,.T.);
#405=EDGE_CURVE('',#465,#463,#466,.T.);
#406=EDGE_CURVE('',#465,#459,#467,.T.);
#407=EDGE_CURVE('',#468,#469,#470,.T.);
#408=EDGE_CURVE('',#468,#463,#471,.T.);
#409=EDGE_CURVE('',#469,#461,#472,.T.);
#410=EDGE_CURVE('',#473,#474,#475,.T.);
#411=EDGE_CURVE('',#473,#476,#477,.F.);
#412=EDGE_CURVE('',#478,#476,#479,.T.);
#413=EDGE_CURVE('',#474,#478,#480,.T.);
#414=EDGE_CURVE('',#478,#474,#481,.T.);
#415=EDGE_CURVE('',#476,#473,#482,.F.);
#416=EDGE_CURVE('',#451,#455,#483,.T.);
#417=EDGE_CURVE('',#458,#468,#484,.T.);
#418=EDGE_CURVE('',#459,#465,#485,.T.);
#419=EDGE_CURVE('',#450,#453,#486,.T.);
#420=VERTEX_POINT('',#487);
#421=VERTEX_POINT('',#488);
#422=LINE('',#489,#490);
#423=VERTEX_POINT('',#491);
#424=CIRCLE('',#492,2.4);
#425=VERTEX_POINT('',#493);
#426=LINE('',#494,#495);
#427=CIRCLE('',#496,2.4);
#428=VERTEX_POINT('',#497);
#429=VERTEX_POINT('',#498);
#430=LINE('',#499,#500);
#431=VERTEX_POINT('',#501);
#432=CIRCLE('',#502,1.4);
#433=VERTEX_POINT('',#503);
#434=LINE('',#504,#505);
#435=CIRCLE('',#506,1.4);
#436=VERTEX_POINT('',#507);
#437=VERTEX_POINT('',#508);
#438=LINE('',#509,#510);
#439=VERTEX_POINT('',#511);
#440=CIRCLE('',#512,1.4);
#441=VERTEX_POINT('',#513);
#442=LINE('',#514,#515);
#443=CIRCLE('',#516,1.4);
#444=CIRCLE('',#517,1.4);
#445=CIRCLE('',#518,1.4);
#446=CIRCLE('',#519,2.4);
#447=CIRCLE('',#520,1.4);
#448=CIRCLE('',#521,1.4);
#449=CIRCLE('',#522,2.4);
#450=VERTEX_POINT('',#523);
#451=VERTEX_POINT('',#524);
#452=LINE('',#525,#526);
#453=VERTEX_POINT('',#527);
#454=CIRCLE('',#528,2.5);
#455=VERTEX_POINT('',#529);
#456=LINE('',#530,#531);
#457=CIRCLE('',#532,2.5);
#458=VERTEX_POINT('',#533);
#459=VERTEX_POINT('',#534);
#460=LINE('',#535,#536);
#461=VERTEX_POINT('',#537);
#462=CIRCLE('',#538,0.75);
#463=VERTEX_POINT('',#539);
#464=CIRCLE('',#540,0.75);
#465=VERTEX_POINT('',#541);
#466=LINE('',#542,#543);
#467=CIRCLE('',#544,0.75);
#468=VERTEX_POINT('',#545);
#469=VERTEX_POINT('',#546);
#470=CIRCLE('',#547,2.0);
#471=CIRCLE('',#548,0.75);
#472=CIRCLE('',#549,2.0);
#473=VERTEX_POINT('',#550);
#474=VERTEX_POINT('',#551);
#475=LINE('',#552,#553);
#476=VERTEX_POINT('',#554);
#477=CIRCLE('',#555,1.4);
#478=VERTEX_POINT('',#556);
#479=LINE('',#557,#558);
#480=CIRCLE('',#559,1.4);
#481=CIRCLE('',#560,1.4);
#482=CIRCLE('',#561,1.4);
#483=CIRCLE('',#562,2.5);
#484=CIRCLE('',#563,0.75);
#485=CIRCLE('',#564,0.75);
#486=CIRCLE('',#565,2.5);
#487=CARTESIAN_POINT('',(138.5,2.93905524917371E-016,2.4));
#488=CARTESIAN_POINT('',(163.5,2.93905524917371E-016,2.4));
#489=CARTESIAN_POINT('',(163.5,2.93905524917371E-016,2.4));
#490=VECTOR('',#566,1.0);
#491=CARTESIAN_POINT('',(138.5,0.0,-2.4));
#492=AXIS2_PLACEMENT_3D('',#567,#568,#569);
#493=CARTESIAN_POINT('',(163.5,0.0,-2.4));
#494=CARTESIAN_POINT('',(163.5,-2.93905524917371E-016,-2.4));
#495=VECTOR('',#570,1.0);
#496=AXIS2_PLACEMENT_3D('',#571,#572,#573);
#497=CARTESIAN_POINT('',(163.5,1.71444889535133E-016,1.4));
#498=CARTESIAN_POINT('',(173.5,1.71444889535133E-016,1.4));
#499=CARTESIAN_POINT('',(173.5,1.71444889535133E-016,1.4));
#500=VECTOR('',#574,1.0);
#501=CARTESIAN_POINT('',(163.5,0.0,-1.4));
#502=AXIS2_PLACEMENT_3D('',#575,#576,#577);
#503=CARTESIAN_POINT('',(173.5,0.0,-1.4));
#504=CARTESIAN_POINT('',(173.5,-1.71444889535133E-016,-1.4));
#505=VECTOR('',#578,1.0);
#506=AXIS2_PLACEMENT_3D('',#579,#580,#581);
#507=CARTESIAN_POINT('',(82.0,1.71444889535133E-016,1.4));
#508=CARTESIAN_POINT('',(138.5,1.71444889535133E-016,1.4));
#509=CARTESIAN_POINT('',(138.5,1.71444889535133E-016,1.4));
#510=VECTOR('',#582,1.0);
#511=CARTESIAN_POINT('',(82.0,0.0,-1.4));
#512=AXIS2_PLACEMENT_3D('',#583,#584,#585);
#513=CARTESIAN_POINT('',(138.5,0.0,-1.4));
#514=CARTESIAN_POINT('',(138.5,-1.71444889535133E-016,-1.4));
#515=VECTOR('',#586,1.0);
#516=AXIS2_PLACEMENT_3D('',#587,#588,#589);
#517=AXIS2_PLACEMENT_3D('',#590,#591,#592);
#518=AXIS2_PLACEMENT_3D('',#593,#594,#595);
#519=AXIS2_PLACEMENT_3D('',#596,#597,#598);
#520=AXIS2_PLACEMENT_3D('',#599,#600,#601);
#521=AXIS2_PLACEMENT_3D('',#602,#603,#604);
#522=AXIS2_PLACEMENT_3D('',#605,#606,#607);
#523=CARTESIAN_POINT('',(1.5,0.0,2.5));
#524=CARTESIAN_POINT('',(18.5,0.0,2.5));
#525=CARTESIAN_POINT('',(10.0,3.06151588455594E-016,2.5));
#526=VECTOR('',#608,1.0);
#527=CARTESIAN_POINT('',(1.5,-3.06151588455594E-016,-2.5));
#528=AXIS2_PLACEMENT_3D('',#609,#610,#611);
#529=CARTESIAN_POINT('',(18.5,-3.06151588455594E-016,-2.5));
#530=CARTESIAN_POINT('',(10.0,-3.06151588455594E-016,-2.5));
#531=VECTOR('',#612,1.0);
#532=AXIS2_PLACEMENT_3D('',#613,#614,#615);
#533=CARTESIAN_POINT('',(0.145949999999999,0.0,0.75));
#534=CARTESIAN_POINT('',(1.5,0.0,0.75));
#535=CARTESIAN_POINT('',(0.822975,9.18454765366783E-017,0.75));
#536=VECTOR('',#616,1.0);
#537=CARTESIAN_POINT('',(0.145949999999999,-0.75,-9.18455910373779E-017));
#538=AXIS2_PLACEMENT_3D('',#617,#618,#619);
#539=CARTESIAN_POINT('',(0.145949999999999,-9.18454765366783E-017,-0.75));
#540=AXIS2_PLACEMENT_3D('',#620,#621,#622);
#541=CARTESIAN_POINT('',(1.5,-9.18454765366783E-017,-0.75));
#542=CARTESIAN_POINT('',(0.822975,-9.18454765366783E-017,-0.75));
#543=VECTOR('',#623,1.0);
#544=AXIS2_PLACEMENT_3D('',#624,#625,#626);
#545=CARTESIAN_POINT('',(0.145949999999999,0.75,9.18453620359787E-017));
#546=CARTESIAN_POINT('',(-2.18491891246231E-013,9.35000044781972E-007,0.0));
#547=AXIS2_PLACEMENT_3D('',#627,#628,#629);
#548=AXIS2_PLACEMENT_3D('',#630,#631,#632);
#549=AXIS2_PLACEMENT_3D('',#633,#634,#635);
#550=CARTESIAN_POINT('',(18.5,0.0,1.4));
#551=CARTESIAN_POINT('',(80.0,1.71444889535133E-016,1.4));
#552=CARTESIAN_POINT('',(49.25,1.71444889535133E-016,1.4));
#553=VECTOR('',#636,1.0);
#554=CARTESIAN_POINT('',(18.5,-1.71444889535133E-016,-1.4));
#555=AXIS2_PLACEMENT_3D('',#637,#638,#639);
#556=CARTESIAN_POINT('',(80.0,0.0,-1.4));
#557=CARTESIAN_POINT('',(49.25,-1.71444889535133E-016,-1.4));
#558=VECTOR('',#640,1.0);
#559=AXIS2_PLACEMENT_3D('',#641,#642,#643);
#560=AXIS2_PLACEMENT_3D('',#644,#645,#646);
#561=AXIS2_PLACEMENT_3D('',#647,#648,#649);
#562=AXIS2_PLACEMENT_3D('',#650,#651,#652);
#563=AXIS2_PLACEMENT_3D('',#653,#654,#655);
#564=AXIS2_PLACEMENT_3D('',#656,#657,#658);
#565=AXIS2_PLACEMENT_3D('',#659,#660,#661);
#566=DIRECTION('',(1.0,-0.0,-0.0));
#567=CARTESIAN_POINT('',(138.5,0.0,0.0));
#568=DIRECTION('',(1.0,0.0,0.0));
#569=DIRECTION('',(0.0,0.0,-1.0));
#570=DIRECTION('',(-1.0,-0.0,-0.0));
#571=CARTESIAN_POINT('',(163.5,0.0,0.0));
#572=DIRECTION('',(1.0,0.0,0.0));
#573=DIRECTION('',(0.0,0.0,-1.0));
#574=DIRECTION('',(1.0,-0.0,-0.0));
#575=CARTESIAN_POINT('',(163.5,0.0,0.0));
#576=DIRECTION('',(1.0,0.0,0.0));
#577=DIRECTION('',(0.0,0.0,-1.0));
#578=DIRECTION('',(-1.0,-0.0,-0.0));
#579=CARTESIAN_POINT('',(173.5,0.0,0.0));
#580=DIRECTION('',(1.0,0.0,0.0));
#581=DIRECTION('',(0.0,0.0,-1.0));
#582=DIRECTION('',(1.0,-0.0,-0.0));
#583=CARTESIAN_POINT('',(82.0,0.0,0.0));
#584=DIRECTION('',(1.0,0.0,0.0));
#585=DIRECTION('',(0.0,0.0,-1.0));
#586=DIRECTION('',(-1.0,-0.0,-0.0));
#587=CARTESIAN_POINT('',(138.5,0.0,0.0));
#588=DIRECTION('',(1.0,0.0,0.0));
#589=DIRECTION('',(0.0,0.0,-1.0));
#590=CARTESIAN_POINT('',(82.0,0.0,0.0));
#591=DIRECTION('',(1.0,0.0,0.0));
#592=DIRECTION('',(0.0,0.0,-1.0));
#593=CARTESIAN_POINT('',(173.5,0.0,0.0));
#594=DIRECTION('',(1.0,0.0,0.0));
#595=DIRECTION('',(0.0,0.0,-1.0));
#596=CARTESIAN_POINT('',(163.5,0.0,0.0));
#597=DIRECTION('',(1.0,0.0,0.0));
#598=DIRECTION('',(0.0,0.0,-1.0));
#599=CARTESIAN_POINT('',(163.5,0.0,0.0));
#600=DIRECTION('',(1.0,0.0,0.0));
#601=DIRECTION('',(0.0,0.0,-1.0));
#602=CARTESIAN_POINT('',(138.5,0.0,0.0));
#603=DIRECTION('',(1.0,0.0,0.0));
#604=DIRECTION('',(0.0,0.0,-1.0));
#605=CARTESIAN_POINT('',(138.5,0.0,0.0));
#606=DIRECTION('',(1.0,0.0,0.0));
#607=DIRECTION('',(0.0,0.0,-1.0));
#608=DIRECTION('',(1.0,-0.0,-0.0));
#609=CARTESIAN_POINT('',(1.5,0.0,0.0));
#610=DIRECTION('',(-1.0,0.0,0.0));
#611=DIRECTION('',(0.0,0.0,1.0));
#612=DIRECTION('',(-1.0,-0.0,-0.0));
#613=CARTESIAN_POINT('',(18.5,0.0,0.0));
#614=DIRECTION('',(-1.0,0.0,0.0));
#615=DIRECTION('',(0.0,0.0,1.0));
#616=DIRECTION('',(1.0,-0.0,-0.0));
#617=CARTESIAN_POINT('',(0.145949999999999,0.0,0.0));
#618=DIRECTION('',(-1.0,0.0,0.0));
#619=DIRECTION('',(0.0,0.0,1.0));
#620=CARTESIAN_POINT('',(0.145949999999999,0.0,0.0));
#621=DIRECTION('',(-1.0,0.0,0.0));
#622=DIRECTION('',(0.0,0.0,1.0));
#623=DIRECTION('',(-1.0,-0.0,-0.0));
#624=CARTESIAN_POINT('',(1.5,0.0,0.0));
#625=DIRECTION('',(-1.0,0.0,0.0));
#626=DIRECTION('',(0.0,0.0,1.0));
#627=CARTESIAN_POINT('',(1.99999999999978,9.35000044781972E-007,0.0));
#628=DIRECTION('',(0.0,-1.22460635382238E-016,1.0));
#629=DIRECTION('',(0.0,1.0,1.22460635382238E-016));
#630=CARTESIAN_POINT('',(0.145949999999999,0.0,0.0));
#631=DIRECTION('',(-1.0,0.0,0.0));
#632=DIRECTION('',(0.0,0.0,1.0));
#633=CARTESIAN_POINT('',(1.99999999999978,9.35000044781972E-007,0.0));
#634=DIRECTION('',(0.0,-1.22460635382238E-016,1.0));
#635=DIRECTION('',(0.0,1.0,1.22460635382238E-016));
#636=DIRECTION('',(1.0,-0.0,-0.0));
#637=CARTESIAN_POINT('',(18.5,0.0,0.0));
#638=DIRECTION('',(-1.0,0.0,0.0));
#639=DIRECTION('',(0.0,0.0,1.0));
#640=DIRECTION('',(-1.0,-0.0,-0.0));
#641=CARTESIAN_POINT('',(80.0,0.0,0.0));
#642=DIRECTION('',(1.0,0.0,0.0));
#643=DIRECTION('',(0.0,0.0,-1.0));
#644=CARTESIAN_POINT('',(80.0,0.0,0.0));
#645=DIRECTION('',(1.0,0.0,0.0));
#646=DIRECTION('',(0.0,0.0,-1.0));
#647=CARTESIAN_POINT('',(18.5,0.0,0.0));
#648=DIRECTION('',(-1.0,0.0,0.0));
#649=DIRECTION('',(0.0,0.0,1.0));
#650=CARTESIAN_POINT('',(18.5,0.0,0.0));
#651=DIRECTION('',(-1.0,0.0,0.0));
#652=DIRECTION('',(0.0,0.0,1.0));
#653=CARTESIAN_POINT('',(0.145949999999999,0.0,0.0));
#654=DIRECTION('',(-1.0,0.0,0.0));
#655=DIRECTION('',(0.0,0.0,1.0));
#656=CARTESIAN_POINT('',(1.5,0.0,0.0));
#657=DIRECTION('',(-1.0,0.0,0.0));
#658=DIRECTION('',(0.0,0.0,1.0));
#659=CARTESIAN_POINT('',(1.5,0.0,0.0));
#660=DIRECTION('',(-1.0,0.0,0.0));
#661=DIRECTION('',(0.0,0.0,1.0));
ENDSEC;
END-ISO-10303-21;
