ISO-10303-21;
HEADER;
FILE_DESCRIPTION (( 'STEP AP214' ),
    '1' );
FILE_NAME ('PVCBP-2016-P10.STEP',
    '2019-03-02T02:55:59',
    ( '' ),
    ( '' ),
    'SwSTEP 2.0',
    'SolidWorks 2018',
    '' );
FILE_SCHEMA (( 'AUTOMOTIVE_DESIGN' ));
ENDSEC;

DATA;
#1 = MANIFOLD_SOLID_BREP ( 'Imported1', #219 ) ;
#2 = VECTOR ( 'NONE', #248, 39.37007874015748143 ) ;
#3 = EDGE_LOOP ( 'NONE', ( #80, #23, #91, #281 ) ) ;
#4 = FACE_BOUND ( 'NONE', #47, .T. ) ;
#5 = CARTESIAN_POINT ( 'NONE',  ( 7.440000000000000391, 0.0000000000000000000, 9.439999999999999503 ) ) ;
#6 = ADVANCED_FACE ( 'NONE', ( #231, #193 ), #110, .F. ) ;
#7 = AXIS2_PLACEMENT_3D ( 'NONE', #288, #236, #178 ) ;
#8 = LINE ( 'NONE', #257, #66 ) ;
#9 = PRESENTATION_STYLE_ASSIGNMENT (( #224 ) ) ;
#10 = VERTEX_POINT ( 'NONE', #170 ) ;
#11 = DIMENSIONAL_EXPONENTS ( 1.000000000000000000, 0.0000000000000000000, 0.0000000000000000000, 0.0000000000000000000, 0.0000000000000000000, 0.0000000000000000000, 0.0000000000000000000 ) ;
#12 = CARTESIAN_POINT ( 'NONE',  ( 7.440000000000000391, 0.0000000000000000000, 9.439999999999999503 ) ) ;
#13 = ADVANCED_FACE ( 'NONE', ( #55, #226 ), #52, .F. ) ;
#14 = CARTESIAN_POINT ( 'NONE',  ( 0.0000000000000000000, 0.0000000000000000000, 0.0000000000000000000 ) ) ;
#15 = CIRCLE ( 'NONE', #201, 0.1250000000000004441 ) ;
#16 = ORIENTED_EDGE ( 'NONE', *, *, #143, .T. ) ;
#17 = CARTESIAN_POINT ( 'NONE',  ( 7.125000000000000000, 0.0000000000000000000, 8.999999999999998224 ) ) ;
#18 = DIRECTION ( 'NONE',  ( 0.0000000000000000000, -1.000000000000000000, 0.0000000000000000000 ) ) ;
#19 = CARTESIAN_POINT ( 'NONE',  ( -7.125000000000000000, -0.1874999999999999722, 8.999999999999998224 ) ) ;
#20 =( NAMED_UNIT ( * ) SI_UNIT ( $, .STERADIAN. ) SOLID_ANGLE_UNIT ( ) );
#21 = VERTEX_POINT ( 'NONE', #41 ) ;
#22 = EDGE_LOOP ( 'NONE', ( #280, #272, #126, #113 ) ) ;
#23 = ORIENTED_EDGE ( 'NONE', *, *, #64, .F. ) ;
#24 = CARTESIAN_POINT ( 'NONE',  ( 7.125000000000000000, 0.0000000000000000000, -9.250000000000000000 ) ) ;
#25 = MECHANICAL_DESIGN_GEOMETRIC_PRESENTATION_REPRESENTATION (  '', ( #27 ), #232 ) ;
#26 = ORIENTED_EDGE ( 'NONE', *, *, #316, .T. ) ;
#27 = STYLED_ITEM ( 'NONE', ( #9 ), #1 ) ;
#28 = FACE_BOUND ( 'NONE', #254, .T. ) ;
#29 = LENGTH_MEASURE_WITH_UNIT ( LENGTH_MEASURE( 0.02539999999999999897 ), #317 );
#30 = EDGE_CURVE ( 'NONE', #165, #136, #301, .T. ) ;
#31 = ORIENTED_EDGE ( 'NONE', *, *, #143, .F. ) ;
#32 = ORIENTED_EDGE ( 'NONE', *, *, #308, .F. ) ;
#33 = PLANE ( 'NONE',  #167 ) ;
#34 = CARTESIAN_POINT ( 'NONE',  ( -7.440000000000000391, 0.0000000000000000000, 9.439999999999999503 ) ) ;
#35 = VECTOR ( 'NONE', #228, 39.37007874015748143 ) ;
#36 = DIMENSIONAL_EXPONENTS ( 1.000000000000000000, 0.0000000000000000000, 0.0000000000000000000, 0.0000000000000000000, 0.0000000000000000000, 0.0000000000000000000, 0.0000000000000000000 ) ;
#37 = CARTESIAN_POINT ( 'NONE',  ( -7.440000000000000391, -0.1874999999999999722, -9.439999999999999503 ) ) ;
#38 = LINE ( 'NONE', #297, #71 ) ;
#39 = EDGE_LOOP ( 'NONE', ( #31 ) ) ;
#40 = PLANE ( 'NONE',  #282 ) ;
#41 = CARTESIAN_POINT ( 'NONE',  ( -7.125000000000000000, 0.0000000000000000000, -9.250000000000000000 ) ) ;
#42 = VECTOR ( 'NONE', #59, 39.37007874015748143 ) ;
#43 =( LENGTH_UNIT ( ) NAMED_UNIT ( * ) SI_UNIT ( $, .METRE. ) );
#44 = EDGE_CURVE ( 'NONE', #21, #21, #117, .T. ) ;
#45 = SURFACE_SIDE_STYLE ('',( #266 ) ) ;
#46 = EDGE_CURVE ( 'NONE', #296, #197, #267, .T. ) ;
#47 = EDGE_LOOP ( 'NONE', ( #96 ) ) ;
#48 = CARTESIAN_POINT ( 'NONE',  ( -7.125000000000000000, -0.1874999999999999722, -9.250000000000000000 ) ) ;
#49 = AXIS2_PLACEMENT_3D ( 'NONE', #183, #18, #128 ) ;
#50 = PRESENTATION_STYLE_ASSIGNMENT (( #72 ) ) ;
#51 = FACE_OUTER_BOUND ( 'NONE', #287, .T. ) ;
#52 = CYLINDRICAL_SURFACE ( 'NONE', #182, 0.1250000000000004441 ) ;
#53 =( NAMED_UNIT ( * ) SI_UNIT ( $, .STERADIAN. ) SOLID_ANGLE_UNIT ( ) );
#54 = CARTESIAN_POINT ( 'NONE',  ( -7.440000000000000391, -0.1874999999999999722, 9.439999999999999503 ) ) ;
#55 = FACE_OUTER_BOUND ( 'NONE', #305, .T. ) ;
#56 = EDGE_LOOP ( 'NONE', ( #264 ) ) ;
#57 = LINE ( 'NONE', #131, #192 ) ;
#58 = CARTESIAN_POINT ( 'NONE',  ( 7.125000000000000000, -0.1874999999999999722, 9.125000000000000000 ) ) ;
#59 = DIRECTION ( 'NONE',  ( 1.000000000000000000, 0.0000000000000000000, 0.0000000000000000000 ) ) ;
#60 = PRODUCT ( 'PVCBP-2016-P10', 'PVCBP-2016-P10', '', ( #311 ) ) ;
#61 = ADVANCED_FACE ( 'NONE', ( #328 ), #121, .T. ) ;
#62 = CIRCLE ( 'NONE', #337, 0.1250000000000004441 ) ;
#63 = PLANE ( 'NONE',  #312 ) ;
#64 = EDGE_CURVE ( 'NONE', #342, #296, #111, .T. ) ;
#65 = DIRECTION ( 'NONE',  ( -0.0000000000000000000, 1.000000000000000000, -0.0000000000000000000 ) ) ;
#66 = VECTOR ( 'NONE', #97, 39.37007874015748143 ) ;
#67 = ORIENTED_EDGE ( 'NONE', *, *, #46, .T. ) ;
#68 = DIRECTION ( 'NONE',  ( 0.0000000000000000000, 0.0000000000000000000, -1.000000000000000000 ) ) ;
#69 = EDGE_CURVE ( 'NONE', #268, #342, #38, .T. ) ;
#70 = APPLICATION_CONTEXT ( 'automotive_design' ) ;
#71 = VECTOR ( 'NONE', #277, 39.37007874015748143 ) ;
#72 = SURFACE_STYLE_USAGE ( .BOTH. , #45 ) ;
#73 = ORIENTED_EDGE ( 'NONE', *, *, #205, .T. ) ;
#74 =( NAMED_UNIT ( * ) PLANE_ANGLE_UNIT ( ) SI_UNIT ( $, .RADIAN. ) );
#75 =( NAMED_UNIT ( * ) PLANE_ANGLE_UNIT ( ) SI_UNIT ( $, .RADIAN. ) );
#76 = FACE_BOUND ( 'NONE', #151, .T. ) ;
#77 = AXIS2_PLACEMENT_3D ( 'NONE', #147, #204, #153 ) ;
#78 = DIRECTION ( 'NONE',  ( 0.0000000000000000000, 0.0000000000000000000, -1.000000000000000000 ) ) ;
#79 = VERTEX_POINT ( 'NONE', #214 ) ;
#80 = ORIENTED_EDGE ( 'NONE', *, *, #105, .F. ) ;
#81 = ORIENTED_EDGE ( 'NONE', *, *, #316, .F. ) ;
#82 = FILL_AREA_STYLE ('',( #173 ) ) ;
#83 = VECTOR ( 'NONE', #324, 39.37007874015748143 ) ;
#84 = ORIENTED_EDGE ( 'NONE', *, *, #160, .F. ) ;
#85 = DIRECTION ( 'NONE',  ( -1.000000000000000000, 0.0000000000000000000, -0.0000000000000000000 ) ) ;
#86 = CARTESIAN_POINT ( 'NONE',  ( -7.440000000000000391, -0.1874999999999999722, 9.439999999999999503 ) ) ;
#87 = EDGE_CURVE ( 'NONE', #292, #292, #313, .T. ) ;
#88 = ADVANCED_FACE ( 'NONE', ( #244 ), #33, .T. ) ;
#89 = CIRCLE ( 'NONE', #49, 0.1250000000000004441 ) ;
#90 = ORIENTED_EDGE ( 'NONE', *, *, #261, .T. ) ;
#91 = ORIENTED_EDGE ( 'NONE', *, *, #109, .T. ) ;
#92 = DIRECTION ( 'NONE',  ( -1.000000000000000000, 0.0000000000000000000, 0.0000000000000000000 ) ) ;
#93 = DIRECTION ( 'NONE',  ( -0.0000000000000000000, 1.000000000000000000, -0.0000000000000000000 ) ) ;
#94 = LENGTH_MEASURE_WITH_UNIT ( LENGTH_MEASURE( 0.02539999999999999897 ), #43 );
#95 = EDGE_LOOP ( 'NONE', ( #168 ) ) ;
#96 = ORIENTED_EDGE ( 'NONE', *, *, #186, .T. ) ;
#97 = DIRECTION ( 'NONE',  ( -0.0000000000000000000, 0.0000000000000000000, -1.000000000000000000 ) ) ;
#98 = PLANE ( 'NONE',  #7 ) ;
#99 = AXIS2_PLACEMENT_3D ( 'NONE', #144, #294, #320 ) ;
#100 = LINE ( 'NONE', #279, #300 ) ;
#101 = EDGE_LOOP ( 'NONE', ( #107 ) ) ;
#102 =( CONVERSION_BASED_UNIT ( 'INCH', #94 ) LENGTH_UNIT ( ) NAMED_UNIT ( #155 ) );
#103 = APPLICATION_PROTOCOL_DEFINITION ( 'draft international standard', 'automotive_design', 1998, #189 ) ;
#104 = CARTESIAN_POINT ( 'NONE',  ( 7.125000000000000000, -0.1874999999999999722, -9.250000000000000000 ) ) ;
#105 = EDGE_CURVE ( 'NONE', #296, #165, #106, .T. ) ;
#106 = LINE ( 'NONE', #34, #241 ) ;
#107 = ORIENTED_EDGE ( 'NONE', *, *, #347, .T. ) ;
#108 = AXIS2_PLACEMENT_3D ( 'NONE', #227, #276, #202 ) ;
#109 = EDGE_CURVE ( 'NONE', #342, #203, #207, .T. ) ;
#110 = CYLINDRICAL_SURFACE ( 'NONE', #99, 0.1250000000000004441 ) ;
#111 = LINE ( 'NONE', #149, #35 ) ;
#112 = DIRECTION ( 'NONE',  ( 0.0000000000000000000, -1.000000000000000000, 0.0000000000000000000 ) ) ;
#113 = ORIENTED_EDGE ( 'NONE', *, *, #198, .T. ) ;
#114 = UNCERTAINTY_MEASURE_WITH_UNIT (LENGTH_MEASURE( 1.000000000000000082E-05 ), #187, 'distance_accuracy_value', 'NONE');
#115 = CARTESIAN_POINT ( 'NONE',  ( 7.440000000000000391, -0.1874999999999999722, 9.439999999999999503 ) ) ;
#116 = FACE_OUTER_BOUND ( 'NONE', #295, .T. ) ;
#117 = CIRCLE ( 'NONE', #77, 0.1250000000000004441 ) ;
#118 = PRODUCT_DEFINITION ( 'UNKNOWN', '', #306, #331 ) ;
#119 = DIRECTION ( 'NONE',  ( -0.0000000000000000000, -1.000000000000000000, 0.0000000000000000000 ) ) ;
#120 = CARTESIAN_POINT ( 'NONE',  ( -7.440000000000000391, 0.0000000000000000000, -9.439999999999999503 ) ) ;
#121 = PLANE ( 'NONE',  #247 ) ;
#122 = UNCERTAINTY_MEASURE_WITH_UNIT (LENGTH_MEASURE( 1.000000000000000082E-05 ), #271, 'distance_accuracy_value', 'NONE');
#123 = LINE ( 'NONE', #115, #229 ) ;
#124 = DIRECTION ( 'NONE',  ( -1.000000000000000000, 0.0000000000000000000, -0.0000000000000000000 ) ) ;
#125 = ORIENTED_EDGE ( 'NONE', *, *, #160, .T. ) ;
#126 = ORIENTED_EDGE ( 'NONE', *, *, #127, .T. ) ;
#127 = EDGE_CURVE ( 'NONE', #268, #10, #175, .T. ) ;
#128 = DIRECTION ( 'NONE',  ( 0.0000000000000000000, 0.0000000000000000000, -1.000000000000000000 ) ) ;
#129 = DIRECTION ( 'NONE',  ( -0.0000000000000000000, 1.000000000000000000, 0.0000000000000000000 ) ) ;
#130 = CIRCLE ( 'NONE', #195, 0.1250000000000004441 ) ;
#131 = CARTESIAN_POINT ( 'NONE',  ( -7.440000000000000391, -0.1874999999999999722, -9.439999999999999503 ) ) ;
#132 = FILL_AREA_STYLE_COLOUR ( '', #315 ) ;
#133 = FACE_BOUND ( 'NONE', #185, .T. ) ;
#134 =( LENGTH_UNIT ( ) NAMED_UNIT ( * ) SI_UNIT ( $, .METRE. ) );
#135 = VERTEX_POINT ( 'NONE', #48 ) ;
#136 = VERTEX_POINT ( 'NONE', #321 ) ;
#137 = AXIS2_PLACEMENT_3D ( 'NONE', #212, #283, #124 ) ;
#138 = CARTESIAN_POINT ( 'NONE',  ( 7.125000000000000000, 0.0000000000000000000, -9.125000000000000000 ) ) ;
#139 = PRESENTATION_LAYER_ASSIGNMENT (  '', '', ( #156 ) ) ;
#140 =( NAMED_UNIT ( * ) PLANE_ANGLE_UNIT ( ) SI_UNIT ( $, .RADIAN. ) );
#141 = ORIENTED_EDGE ( 'NONE', *, *, #347, .F. ) ;
#142 = ORIENTED_EDGE ( 'NONE', *, *, #87, .F. ) ;
#143 = EDGE_CURVE ( 'NONE', #79, #79, #130, .T. ) ;
#144 = CARTESIAN_POINT ( 'NONE',  ( -7.125000000000000000, 0.0000000000000000000, -9.125000000000000000 ) ) ;
#145 = LINE ( 'NONE', #12, #246 ) ;
#146 = ORIENTED_EDGE ( 'NONE', *, *, #44, .T. ) ;
#147 = CARTESIAN_POINT ( 'NONE',  ( -7.125000000000000000, 0.0000000000000000000, -9.125000000000000000 ) ) ;
#148 = DIRECTION ( 'NONE',  ( 0.0000000000000000000, -1.000000000000000000, 0.0000000000000000000 ) ) ;
#149 = CARTESIAN_POINT ( 'NONE',  ( -7.440000000000000391, 0.0000000000000000000, 0.0000000000000000000 ) ) ;
#150 = ORIENTED_EDGE ( 'NONE', *, *, #205, .F. ) ;
#151 = EDGE_LOOP ( 'NONE', ( #16 ) ) ;
#152 = ADVANCED_FACE ( 'NONE', ( #211, #278 ), #263, .F. ) ;
#153 = DIRECTION ( 'NONE',  ( 0.0000000000000000000, 0.0000000000000000000, -1.000000000000000000 ) ) ;
#154 = DIRECTION ( 'NONE',  ( 1.000000000000000000, 0.0000000000000000000, -0.0000000000000000000 ) ) ;
#155 = DIMENSIONAL_EXPONENTS ( 1.000000000000000000, 0.0000000000000000000, 0.0000000000000000000, 0.0000000000000000000, 0.0000000000000000000, 0.0000000000000000000, 0.0000000000000000000 ) ;
#156 = STYLED_ITEM ( 'NONE', ( #50 ), #284 ) ;
#157 = CARTESIAN_POINT ( 'NONE',  ( -7.125000000000000000, -0.1874999999999999722, -9.125000000000000000 ) ) ;
#158 = VERTEX_POINT ( 'NONE', #188 ) ;
#159 = EDGE_LOOP ( 'NONE', ( #343, #84, #274, #166 ) ) ;
#160 = EDGE_CURVE ( 'NONE', #136, #10, #123, .T. ) ;
#161 = PRODUCT_DEFINITION_SHAPE ( 'NONE', 'NONE',  #118 ) ;
#162 = PRODUCT_RELATED_PRODUCT_CATEGORY ( 'part', '', ( #60 ) ) ;
#163 = CIRCLE ( 'NONE', #191, 0.1250000000000004441 ) ;
#164 = ORIENTED_EDGE ( 'NONE', *, *, #127, .F. ) ;
#165 = VERTEX_POINT ( 'NONE', #86 ) ;
#166 = ORIENTED_EDGE ( 'NONE', *, *, #235, .F. ) ;
#167 = AXIS2_PLACEMENT_3D ( 'NONE', #120, #92, #255 ) ;
#168 = ORIENTED_EDGE ( 'NONE', *, *, #340, .F. ) ;
#169 = ORIENTED_EDGE ( 'NONE', *, *, #105, .T. ) ;
#170 = CARTESIAN_POINT ( 'NONE',  ( 7.440000000000000391, -0.1874999999999999722, -9.439999999999999503 ) ) ;
#171 = AXIS2_PLACEMENT_3D ( 'NONE', #286, #243, #242 ) ;
#172 = EDGE_LOOP ( 'NONE', ( #329 ) ) ;
#173 = FILL_AREA_STYLE_COLOUR ( '', #289 ) ;
#174 = LENGTH_MEASURE_WITH_UNIT ( LENGTH_MEASURE( 0.02539999999999999897 ), #134 );
#175 = LINE ( 'NONE', #176, #83 ) ;
#176 = CARTESIAN_POINT ( 'NONE',  ( 7.440000000000000391, 0.0000000000000000000, -9.439999999999999503 ) ) ;
#177 = DIRECTION ( 'NONE',  ( 1.000000000000000000, -0.0000000000000000000, 0.0000000000000000000 ) ) ;
#178 = DIRECTION ( 'NONE',  ( 0.0000000000000000000, -0.0000000000000000000, 1.000000000000000000 ) ) ;
#179 = EDGE_LOOP ( 'NONE', ( #249, #67, #26, #293 ) ) ;
#180 = CARTESIAN_POINT ( 'NONE',  ( -7.125000000000000000, -0.1874999999999999722, 9.125000000000000000 ) ) ;
#181 = DIRECTION ( 'NONE',  ( 0.0000000000000000000, 0.0000000000000000000, -1.000000000000000000 ) ) ;
#182 = AXIS2_PLACEMENT_3D ( 'NONE', #138, #112, #78 ) ;
#183 = CARTESIAN_POINT ( 'NONE',  ( 7.125000000000000000, 0.0000000000000000000, -9.125000000000000000 ) ) ;
#184 = FACE_OUTER_BOUND ( 'NONE', #159, .T. ) ;
#185 = EDGE_LOOP ( 'NONE', ( #146 ) ) ;
#186 = EDGE_CURVE ( 'NONE', #335, #335, #310, .T. ) ;
#187 =( CONVERSION_BASED_UNIT ( 'INCH', #174 ) LENGTH_UNIT ( ) NAMED_UNIT ( #36 ) );
#188 = CARTESIAN_POINT ( 'NONE',  ( -7.125000000000000000, 0.0000000000000000000, 8.999999999999998224 ) ) ;
#189 = APPLICATION_CONTEXT ( 'automotive_design' ) ;
#190 = EDGE_LOOP ( 'NONE', ( #73 ) ) ;
#191 = AXIS2_PLACEMENT_3D ( 'NONE', #215, #213, #339 ) ;
#192 = VECTOR ( 'NONE', #260, 39.37007874015748143 ) ;
#193 = FACE_OUTER_BOUND ( 'NONE', #172, .T. ) ;
#194 = AXIS2_PLACEMENT_3D ( 'NONE', #330, #233, #262 ) ;
#195 = AXIS2_PLACEMENT_3D ( 'NONE', #58, #303, #326 ) ;
#196 = FACE_OUTER_BOUND ( 'NONE', #336, .T. ) ;
#197 = VERTEX_POINT ( 'NONE', #208 ) ;
#198 = EDGE_CURVE ( 'NONE', #10, #203, #100, .T. ) ;
#199 = DIRECTION ( 'NONE',  ( 0.0000000000000000000, 0.0000000000000000000, -1.000000000000000000 ) ) ;
#200 = ADVANCED_FACE ( 'NONE', ( #216 ), #332, .T. ) ;
#201 = AXIS2_PLACEMENT_3D ( 'NONE', #157, #333, #181 ) ;
#202 = DIRECTION ( 'NONE',  ( 0.0000000000000000000, 0.0000000000000000000, -1.000000000000000000 ) ) ;
#203 = VERTEX_POINT ( 'NONE', #37 ) ;
#204 = DIRECTION ( 'NONE',  ( 0.0000000000000000000, -1.000000000000000000, 0.0000000000000000000 ) ) ;
#205 = EDGE_CURVE ( 'NONE', #322, #322, #62, .T. ) ;
#206 = CARTESIAN_POINT ( 'NONE',  ( 0.0000000000000000000, 0.0000000000000000000, 9.439999999999999503 ) ) ;
#207 = LINE ( 'NONE', #325, #253 ) ;
#208 = CARTESIAN_POINT ( 'NONE',  ( 7.440000000000000391, 0.0000000000000000000, 9.439999999999999503 ) ) ;
#209 = CARTESIAN_POINT ( 'NONE',  ( 7.125000000000000000, -0.1874999999999999722, -9.125000000000000000 ) ) ;
#210 = CARTESIAN_POINT ( 'NONE',  ( -7.440000000000000391, 0.0000000000000000000, 9.439999999999999503 ) ) ;
#211 = FACE_OUTER_BOUND ( 'NONE', #39, .T. ) ;
#212 = CARTESIAN_POINT ( 'NONE',  ( 7.440000000000000391, 0.0000000000000000000, -9.439999999999999503 ) ) ;
#213 = DIRECTION ( 'NONE',  ( 0.0000000000000000000, -1.000000000000000000, 0.0000000000000000000 ) ) ;
#214 = CARTESIAN_POINT ( 'NONE',  ( 7.125000000000000000, -0.1874999999999999722, 8.999999999999998224 ) ) ;
#215 = CARTESIAN_POINT ( 'NONE',  ( -7.125000000000000000, 0.0000000000000000000, 9.125000000000000000 ) ) ;
#216 = FACE_OUTER_BOUND ( 'NONE', #22, .T. ) ;
#217 = ORIENTED_EDGE ( 'NONE', *, *, #261, .F. ) ;
#218 =( GEOMETRIC_REPRESENTATION_CONTEXT ( 3 ) GLOBAL_UNCERTAINTY_ASSIGNED_CONTEXT ( ( #114 ) ) GLOBAL_UNIT_ASSIGNED_CONTEXT ( ( #187, #75, #20 ) ) REPRESENTATION_CONTEXT ( 'NONE', 'WORKASPACE' ) );
#219 = CLOSED_SHELL ( 'NONE', ( #302, #13, #6, #152, #275, #256, #88, #200, #61, #259 ) ) ;
#220 = APPLICATION_PROTOCOL_DEFINITION ( 'draft international standard', 'automotive_design', 1998, #70 ) ;
#221 = FACE_BOUND ( 'NONE', #190, .T. ) ;
#222 = EDGE_LOOP ( 'NONE', ( #32 ) ) ;
#223 =( GEOMETRIC_REPRESENTATION_CONTEXT ( 3 ) GLOBAL_UNCERTAINTY_ASSIGNED_CONTEXT ( ( #230 ) ) GLOBAL_UNIT_ASSIGNED_CONTEXT ( ( #102, #74, #290 ) ) REPRESENTATION_CONTEXT ( 'NONE', 'WORKASPACE' ) );
#224 = SURFACE_STYLE_USAGE ( .BOTH. , #319 ) ;
#225 = CYLINDRICAL_SURFACE ( 'NONE', #194, 0.1250000000000004441 ) ;
#226 = FACE_OUTER_BOUND ( 'NONE', #222, .T. ) ;
#227 = CARTESIAN_POINT ( 'NONE',  ( 7.125000000000000000, 0.0000000000000000000, 9.125000000000000000 ) ) ;
#228 = DIRECTION ( 'NONE',  ( 0.0000000000000000000, -0.0000000000000000000, 1.000000000000000000 ) ) ;
#229 = VECTOR ( 'NONE', #298, 39.37007874015748143 ) ;
#230 = UNCERTAINTY_MEASURE_WITH_UNIT (LENGTH_MEASURE( 1.000000000000000082E-05 ), #102, 'distance_accuracy_value', 'NONE');
#231 = FACE_OUTER_BOUND ( 'NONE', #95, .T. ) ;
#232 =( GEOMETRIC_REPRESENTATION_CONTEXT ( 3 ) GLOBAL_UNCERTAINTY_ASSIGNED_CONTEXT ( ( #122 ) ) GLOBAL_UNIT_ASSIGNED_CONTEXT ( ( #271, #140, #53 ) ) REPRESENTATION_CONTEXT ( 'NONE', 'WORKASPACE' ) );
#233 = DIRECTION ( 'NONE',  ( 0.0000000000000000000, -1.000000000000000000, 0.0000000000000000000 ) ) ;
#234 = DIRECTION ( 'NONE',  ( -0.0000000000000000000, 1.000000000000000000, 0.0000000000000000000 ) ) ;
#235 = EDGE_CURVE ( 'NONE', #203, #165, #57, .T. ) ;
#236 = DIRECTION ( 'NONE',  ( -0.0000000000000000000, 1.000000000000000000, 0.0000000000000000000 ) ) ;
#237 = ORIENTED_EDGE ( 'NONE', *, *, #308, .T. ) ;
#238 = EDGE_LOOP ( 'NONE', ( #164, #81, #217, #125 ) ) ;
#239 = AXIS2_PLACEMENT_3D ( 'NONE', #252, #148, #199 ) ;
#240 = FACE_BOUND ( 'NONE', #56, .T. ) ;
#241 = VECTOR ( 'NONE', #250, 39.37007874015748143 ) ;
#242 = DIRECTION ( 'NONE',  ( 1.000000000000000000, 0.0000000000000000000, 0.0000000000000000000 ) ) ;
#243 = DIRECTION ( 'NONE',  ( 0.0000000000000000000, 0.0000000000000000000, 1.000000000000000000 ) ) ;
#244 = FACE_OUTER_BOUND ( 'NONE', #3, .T. ) ;
#245 = EDGE_LOOP ( 'NONE', ( #142 ) ) ;
#246 = VECTOR ( 'NONE', #129, 39.37007874015748143 ) ;
#247 = AXIS2_PLACEMENT_3D ( 'NONE', #5, #177, #299 ) ;
#248 = DIRECTION ( 'NONE',  ( 1.000000000000000000, 0.0000000000000000000, -0.0000000000000000000 ) ) ;
#249 = ORIENTED_EDGE ( 'NONE', *, *, #64, .T. ) ;
#250 = DIRECTION ( 'NONE',  ( 0.0000000000000000000, -1.000000000000000000, -0.0000000000000000000 ) ) ;
#251 = MECHANICAL_DESIGN_GEOMETRIC_PRESENTATION_REPRESENTATION (  '', ( #156 ), #218 ) ;
#252 = CARTESIAN_POINT ( 'NONE',  ( 7.125000000000000000, 0.0000000000000000000, 9.125000000000000000 ) ) ;
#253 = VECTOR ( 'NONE', #119, 39.37007874015748143 ) ;
#254 = EDGE_LOOP ( 'NONE', ( #270 ) ) ;
#255 = DIRECTION ( 'NONE',  ( 0.0000000000000000000, 0.0000000000000000000, 1.000000000000000000 ) ) ;
#256 = ADVANCED_FACE ( 'NONE', ( #51 ), #40, .T. ) ;
#257 = CARTESIAN_POINT ( 'NONE',  ( 7.440000000000000391, 0.0000000000000000000, 0.0000000000000000000 ) ) ;
#258 = EDGE_LOOP ( 'NONE', ( #237 ) ) ;
#259 = ADVANCED_FACE ( 'NONE', ( #4, #28, #76, #221, #184 ), #98, .F. ) ;
#260 = DIRECTION ( 'NONE',  ( 0.0000000000000000000, 0.0000000000000000000, 1.000000000000000000 ) ) ;
#261 = EDGE_CURVE ( 'NONE', #136, #197, #145, .T. ) ;
#262 = DIRECTION ( 'NONE',  ( 0.0000000000000000000, 0.0000000000000000000, -1.000000000000000000 ) ) ;
#263 = CYLINDRICAL_SURFACE ( 'NONE', #239, 0.1250000000000004441 ) ;
#264 = ORIENTED_EDGE ( 'NONE', *, *, #87, .T. ) ;
#265 = AXIS2_PLACEMENT_3D ( 'NONE', #209, #93, #304 ) ;
#266 = SURFACE_STYLE_FILL_AREA ( #344 ) ;
#267 = LINE ( 'NONE', #206, #42 ) ;
#268 = VERTEX_POINT ( 'NONE', #307 ) ;
#269 = SHAPE_DEFINITION_REPRESENTATION ( #161, #284 ) ;
#270 = ORIENTED_EDGE ( 'NONE', *, *, #340, .T. ) ;
#271 =( CONVERSION_BASED_UNIT ( 'INCH', #29 ) LENGTH_UNIT ( ) NAMED_UNIT ( #11 ) );
#272 = ORIENTED_EDGE ( 'NONE', *, *, #69, .F. ) ;
#273 = FACE_OUTER_BOUND ( 'NONE', #179, .T. ) ;
#274 = ORIENTED_EDGE ( 'NONE', *, *, #30, .F. ) ;
#275 = ADVANCED_FACE ( 'NONE', ( #116, #196 ), #225, .F. ) ;
#276 = DIRECTION ( 'NONE',  ( 0.0000000000000000000, -1.000000000000000000, 0.0000000000000000000 ) ) ;
#277 = DIRECTION ( 'NONE',  ( -1.000000000000000000, -0.0000000000000000000, -0.0000000000000000000 ) ) ;
#278 = FACE_OUTER_BOUND ( 'NONE', #245, .T. ) ;
#279 = CARTESIAN_POINT ( 'NONE',  ( 7.440000000000000391, -0.1874999999999999722, -9.439999999999999503 ) ) ;
#280 = ORIENTED_EDGE ( 'NONE', *, *, #109, .F. ) ;
#281 = ORIENTED_EDGE ( 'NONE', *, *, #235, .T. ) ;
#282 = AXIS2_PLACEMENT_3D ( 'NONE', #285, #309, #154 ) ;
#283 = DIRECTION ( 'NONE',  ( 0.0000000000000000000, 0.0000000000000000000, -1.000000000000000000 ) ) ;
#284 = ADVANCED_BREP_SHAPE_REPRESENTATION ( 'PVCBP-2016-P10', ( #1, #171 ), #223 ) ;
#285 = CARTESIAN_POINT ( 'NONE',  ( -7.440000000000000391, 0.0000000000000000000, 9.439999999999999503 ) ) ;
#286 = CARTESIAN_POINT ( 'NONE',  ( 0.0000000000000000000, 0.0000000000000000000, 0.0000000000000000000 ) ) ;
#287 = EDGE_LOOP ( 'NONE', ( #90, #346, #169, #318 ) ) ;
#288 = CARTESIAN_POINT ( 'NONE',  ( 0.0000000000000000000, -0.1874999999999999722, 0.0000000000000000000 ) ) ;
#289 = COLOUR_RGB ( '',0.7921568627450980005, 0.8196078431372548767, 0.9333333333333333481 ) ;
#290 =( NAMED_UNIT ( * ) SI_UNIT ( $, .STERADIAN. ) SOLID_ANGLE_UNIT ( ) );
#291 = PRESENTATION_LAYER_ASSIGNMENT (  '', '', ( #27 ) ) ;
#292 = VERTEX_POINT ( 'NONE', #17 ) ;
#293 = ORIENTED_EDGE ( 'NONE', *, *, #69, .T. ) ;
#294 = DIRECTION ( 'NONE',  ( 0.0000000000000000000, -1.000000000000000000, 0.0000000000000000000 ) ) ;
#295 = EDGE_LOOP ( 'NONE', ( #150 ) ) ;
#296 = VERTEX_POINT ( 'NONE', #210 ) ;
#297 = CARTESIAN_POINT ( 'NONE',  ( 0.0000000000000000000, 0.0000000000000000000, -9.439999999999999503 ) ) ;
#298 = DIRECTION ( 'NONE',  ( 0.0000000000000000000, 0.0000000000000000000, -1.000000000000000000 ) ) ;
#299 = DIRECTION ( 'NONE',  ( 0.0000000000000000000, 0.0000000000000000000, -1.000000000000000000 ) ) ;
#300 = VECTOR ( 'NONE', #85, 39.37007874015748143 ) ;
#301 = LINE ( 'NONE', #54, #2 ) ;
#302 = ADVANCED_FACE ( 'NONE', ( #341, #133, #240, #327, #273 ), #63, .T. ) ;
#303 = DIRECTION ( 'NONE',  ( -0.0000000000000000000, 1.000000000000000000, -0.0000000000000000000 ) ) ;
#304 = DIRECTION ( 'NONE',  ( 0.0000000000000000000, 0.0000000000000000000, -1.000000000000000000 ) ) ;
#305 = EDGE_LOOP ( 'NONE', ( #323 ) ) ;
#306 = PRODUCT_DEFINITION_FORMATION_WITH_SPECIFIED_SOURCE ( 'ANY', '', #60, .NOT_KNOWN. ) ;
#307 = CARTESIAN_POINT ( 'NONE',  ( 7.440000000000000391, 0.0000000000000000000, -9.439999999999999503 ) ) ;
#308 = EDGE_CURVE ( 'NONE', #345, #345, #89, .T. ) ;
#309 = DIRECTION ( 'NONE',  ( 0.0000000000000000000, 0.0000000000000000000, 1.000000000000000000 ) ) ;
#310 = CIRCLE ( 'NONE', #265, 0.1250000000000004441 ) ;
#311 = PRODUCT_CONTEXT ( 'NONE', #189, 'mechanical' ) ;
#312 = AXIS2_PLACEMENT_3D ( 'NONE', #14, #234, #334 ) ;
#313 = CIRCLE ( 'NONE', #108, 0.1250000000000004441 ) ;
#314 = SURFACE_STYLE_FILL_AREA ( #82 ) ;
#315 = COLOUR_RGB ( '',0.7921568627450980005, 0.8196078431372548767, 0.9333333333333333481 ) ;
#316 = EDGE_CURVE ( 'NONE', #197, #268, #8, .T. ) ;
#317 =( LENGTH_UNIT ( ) NAMED_UNIT ( * ) SI_UNIT ( $, .METRE. ) );
#318 = ORIENTED_EDGE ( 'NONE', *, *, #30, .T. ) ;
#319 = SURFACE_SIDE_STYLE ('',( #314 ) ) ;
#320 = DIRECTION ( 'NONE',  ( 0.0000000000000000000, 0.0000000000000000000, -1.000000000000000000 ) ) ;
#321 = CARTESIAN_POINT ( 'NONE',  ( 7.440000000000000391, -0.1874999999999999722, 9.439999999999999503 ) ) ;
#322 = VERTEX_POINT ( 'NONE', #19 ) ;
#323 = ORIENTED_EDGE ( 'NONE', *, *, #186, .F. ) ;
#324 = DIRECTION ( 'NONE',  ( -0.0000000000000000000, -1.000000000000000000, -0.0000000000000000000 ) ) ;
#325 = CARTESIAN_POINT ( 'NONE',  ( -7.440000000000000391, 0.0000000000000000000, -9.439999999999999503 ) ) ;
#326 = DIRECTION ( 'NONE',  ( 0.0000000000000000000, 0.0000000000000000000, -1.000000000000000000 ) ) ;
#327 = FACE_BOUND ( 'NONE', #101, .T. ) ;
#328 = FACE_OUTER_BOUND ( 'NONE', #238, .T. ) ;
#329 = ORIENTED_EDGE ( 'NONE', *, *, #44, .F. ) ;
#330 = CARTESIAN_POINT ( 'NONE',  ( -7.125000000000000000, 0.0000000000000000000, 9.125000000000000000 ) ) ;
#331 = PRODUCT_DEFINITION_CONTEXT ( 'detailed design', #70, 'design' ) ;
#332 = PLANE ( 'NONE',  #137 ) ;
#333 = DIRECTION ( 'NONE',  ( -0.0000000000000000000, 1.000000000000000000, -0.0000000000000000000 ) ) ;
#334 = DIRECTION ( 'NONE',  ( 0.0000000000000000000, -0.0000000000000000000, 1.000000000000000000 ) ) ;
#335 = VERTEX_POINT ( 'NONE', #104 ) ;
#336 = EDGE_LOOP ( 'NONE', ( #141 ) ) ;
#337 = AXIS2_PLACEMENT_3D ( 'NONE', #180, #65, #68 ) ;
#338 = CARTESIAN_POINT ( 'NONE',  ( -7.440000000000000391, 0.0000000000000000000, -9.439999999999999503 ) ) ;
#339 = DIRECTION ( 'NONE',  ( 0.0000000000000000000, 0.0000000000000000000, -1.000000000000000000 ) ) ;
#340 = EDGE_CURVE ( 'NONE', #135, #135, #15, .T. ) ;
#341 = FACE_BOUND ( 'NONE', #258, .T. ) ;
#342 = VERTEX_POINT ( 'NONE', #338 ) ;
#343 = ORIENTED_EDGE ( 'NONE', *, *, #198, .F. ) ;
#344 = FILL_AREA_STYLE ('',( #132 ) ) ;
#345 = VERTEX_POINT ( 'NONE', #24 ) ;
#346 = ORIENTED_EDGE ( 'NONE', *, *, #46, .F. ) ;
#347 = EDGE_CURVE ( 'NONE', #158, #158, #163, .T. ) ;
ENDSEC;
END-ISO-10303-21;
