ISO-10303-21;
HEADER;
FILE_DESCRIPTION (( 'STEP AP214' ),
    '1' );
FILE_NAME ('PVCBP-2424-P10.STEP',
    '2019-03-02T03:01:46',
    ( '' ),
    ( '' ),
    'SwSTEP 2.0',
    'SolidWorks 2018',
    '' );
FILE_SCHEMA (( 'AUTOMOTIVE_DESIGN' ));
ENDSEC;

DATA;
#1 = FACE_BOUND ( 'NONE', #237, .T. ) ;
#2 = DIRECTION ( 'NONE',  ( 0.0000000000000000000, 1.000000000000000000, 0.0000000000000000000 ) ) ;
#3 =( GEOMETRIC_REPRESENTATION_CONTEXT ( 3 ) GLOBAL_UNCERTAINTY_ASSIGNED_CONTEXT ( ( #155 ) ) GLOBAL_UNIT_ASSIGNED_CONTEXT ( ( #166, #85, #39 ) ) REPRESENTATION_CONTEXT ( 'NONE', 'WORKASPACE' ) );
#4 = CIRCLE ( 'NONE', #171, 0.1560000000000001941 ) ;
#5 = CARTESIAN_POINT ( 'NONE',  ( -9.625000000000000000, -0.1869999999999999996, 9.625000000000000000 ) ) ;
#6 = CARTESIAN_POINT ( 'NONE',  ( -10.50000000000000000, -0.1869999999999999996, -10.50000000000000000 ) ) ;
#7 = ADVANCED_FACE ( 'NONE', ( #307 ), #49, .T. ) ;
#8 =( NAMED_UNIT ( * ) PLANE_ANGLE_UNIT ( ) SI_UNIT ( $, .RADIAN. ) );
#9 = EDGE_LOOP ( 'NONE', ( #76 ) ) ;
#10 = DIRECTION ( 'NONE',  ( 1.000000000000000000, 0.0000000000000000000, -0.0000000000000000000 ) ) ;
#11 = FACE_OUTER_BOUND ( 'NONE', #9, .T. ) ;
#12 = EDGE_LOOP ( 'NONE', ( #228, #284, #334, #281 ) ) ;
#13 = MECHANICAL_DESIGN_GEOMETRIC_PRESENTATION_REPRESENTATION (  '', ( #108 ), #19 ) ;
#14 = ORIENTED_EDGE ( 'NONE', *, *, #99, .T. ) ;
#15 = AXIS2_PLACEMENT_3D ( 'NONE', #317, #204, #44 ) ;
#16 = FACE_OUTER_BOUND ( 'NONE', #176, .T. ) ;
#17 = VERTEX_POINT ( 'NONE', #101 ) ;
#18 = EDGE_LOOP ( 'NONE', ( #258 ) ) ;
#19 =( GEOMETRIC_REPRESENTATION_CONTEXT ( 3 ) GLOBAL_UNCERTAINTY_ASSIGNED_CONTEXT ( ( #246 ) ) GLOBAL_UNIT_ASSIGNED_CONTEXT ( ( #138, #8, #252 ) ) REPRESENTATION_CONTEXT ( 'NONE', 'WORKASPACE' ) );
#20 = DIRECTION ( 'NONE',  ( 0.0000000000000000000, 0.0000000000000000000, 1.000000000000000000 ) ) ;
#21 = EDGE_CURVE ( 'NONE', #250, #224, #33, .T. ) ;
#22 = FACE_BOUND ( 'NONE', #293, .T. ) ;
#23 = EDGE_LOOP ( 'NONE', ( #93, #203, #14, #344 ) ) ;
#24 = DIRECTION ( 'NONE',  ( -0.0000000000000000000, -1.000000000000000000, 0.0000000000000000000 ) ) ;
#25 = PLANE ( 'NONE',  #345 ) ;
#26 = CARTESIAN_POINT ( 'NONE',  ( 9.625000000000000000, -0.1869999999999999996, -9.625000000000000000 ) ) ;
#27 = VECTOR ( 'NONE', #313, 39.37007874015748143 ) ;
#28 = DIMENSIONAL_EXPONENTS ( 1.000000000000000000, 0.0000000000000000000, 0.0000000000000000000, 0.0000000000000000000, 0.0000000000000000000, 0.0000000000000000000, 0.0000000000000000000 ) ;
#29 = CARTESIAN_POINT ( 'NONE',  ( 10.50000000000000000, 0.0000000000000000000, 10.50000000000000000 ) ) ;
#30 = CARTESIAN_POINT ( 'NONE',  ( 10.50000000000000000, 0.0000000000000000000, 10.50000000000000000 ) ) ;
#31 = FILL_AREA_STYLE ('',( #191 ) ) ;
#32 = ADVANCED_FACE ( 'NONE', ( #11, #114 ), #205, .F. ) ;
#33 = LINE ( 'NONE', #285, #97 ) ;
#34 = EDGE_LOOP ( 'NONE', ( #81 ) ) ;
#35 = CARTESIAN_POINT ( 'NONE',  ( -9.625000000000000000, -0.1869999999999999996, 9.781000000000000583 ) ) ;
#36 = ADVANCED_FACE ( 'NONE', ( #277 ), #314, .T. ) ;
#37 = SURFACE_STYLE_FILL_AREA ( #167 ) ;
#38 = ORIENTED_EDGE ( 'NONE', *, *, #174, .T. ) ;
#39 =( NAMED_UNIT ( * ) SI_UNIT ( $, .STERADIAN. ) SOLID_ANGLE_UNIT ( ) );
#40 = STYLED_ITEM ( 'NONE', ( #270 ), #168 ) ;
#41 = EDGE_LOOP ( 'NONE', ( #100 ) ) ;
#42 = VECTOR ( 'NONE', #187, 39.37007874015748143 ) ;
#43 = AXIS2_PLACEMENT_3D ( 'NONE', #225, #111, #62 ) ;
#44 = DIRECTION ( 'NONE',  ( 0.0000000000000000000, 0.0000000000000000000, 1.000000000000000000 ) ) ;
#45 = LINE ( 'NONE', #249, #42 ) ;
#46 = ORIENTED_EDGE ( 'NONE', *, *, #323, .F. ) ;
#47 = EDGE_LOOP ( 'NONE', ( #73 ) ) ;
#48 = DIRECTION ( 'NONE',  ( 0.0000000000000000000, 1.000000000000000000, 0.0000000000000000000 ) ) ;
#49 = PLANE ( 'NONE',  #347 ) ;
#50 = DIRECTION ( 'NONE',  ( 0.0000000000000000000, 0.0000000000000000000, 1.000000000000000000 ) ) ;
#51 = VERTEX_POINT ( 'NONE', #169 ) ;
#52 = LINE ( 'NONE', #109, #299 ) ;
#53 = FACE_OUTER_BOUND ( 'NONE', #165, .T. ) ;
#54 = EDGE_LOOP ( 'NONE', ( #87 ) ) ;
#55 = CARTESIAN_POINT ( 'NONE',  ( -9.625000000000000000, 0.0000000000000000000, -9.625000000000000000 ) ) ;
#56 = DIRECTION ( 'NONE',  ( 0.0000000000000000000, 1.000000000000000000, 0.0000000000000000000 ) ) ;
#57 = VERTEX_POINT ( 'NONE', #333 ) ;
#58 = DIRECTION ( 'NONE',  ( 0.0000000000000000000, 1.000000000000000000, 0.0000000000000000000 ) ) ;
#59 = FACE_OUTER_BOUND ( 'NONE', #18, .T. ) ;
#60 = CARTESIAN_POINT ( 'NONE',  ( 0.0000000000000000000, 0.0000000000000000000, 0.0000000000000000000 ) ) ;
#61 = ADVANCED_FACE ( 'NONE', ( #59, #53 ), #232, .F. ) ;
#62 = DIRECTION ( 'NONE',  ( 0.0000000000000000000, 0.0000000000000000000, 1.000000000000000000 ) ) ;
#63 = VECTOR ( 'NONE', #10, 39.37007874015748143 ) ;
#64 = ORIENTED_EDGE ( 'NONE', *, *, #308, .T. ) ;
#65 = CARTESIAN_POINT ( 'NONE',  ( 9.625000000000000000, -0.1869999999999999996, 9.625000000000000000 ) ) ;
#66 =( GEOMETRIC_REPRESENTATION_CONTEXT ( 3 ) GLOBAL_UNCERTAINTY_ASSIGNED_CONTEXT ( ( #201 ) ) GLOBAL_UNIT_ASSIGNED_CONTEXT ( ( #196, #90, #303 ) ) REPRESENTATION_CONTEXT ( 'NONE', 'WORKASPACE' ) );
#67 = DIRECTION ( 'NONE',  ( 1.000000000000000000, 0.0000000000000000000, 0.0000000000000000000 ) ) ;
#68 = ORIENTED_EDGE ( 'NONE', *, *, #74, .F. ) ;
#69 = CIRCLE ( 'NONE', #43, 0.1560000000000001941 ) ;
#70 = EDGE_CURVE ( 'NONE', #224, #142, #310, .T. ) ;
#71 = ORIENTED_EDGE ( 'NONE', *, *, #177, .T. ) ;
#72 = LINE ( 'NONE', #30, #91 ) ;
#73 = ORIENTED_EDGE ( 'NONE', *, *, #261, .T. ) ;
#74 = EDGE_CURVE ( 'NONE', #152, #152, #92, .T. ) ;
#75 = DIRECTION ( 'NONE',  ( 0.0000000000000000000, -0.0000000000000000000, 1.000000000000000000 ) ) ;
#76 = ORIENTED_EDGE ( 'NONE', *, *, #337, .F. ) ;
#77 = CARTESIAN_POINT ( 'NONE',  ( -10.50000000000000000, 0.0000000000000000000, -10.50000000000000000 ) ) ;
#78 = DIRECTION ( 'NONE',  ( 0.0000000000000000000, 0.0000000000000000000, 1.000000000000000000 ) ) ;
#79 = AXIS2_PLACEMENT_3D ( 'NONE', #222, #226, #67 ) ;
#80 = PLANE ( 'NONE',  #158 ) ;
#81 = ORIENTED_EDGE ( 'NONE', *, *, #337, .T. ) ;
#82 = EDGE_CURVE ( 'NONE', #179, #250, #343, .T. ) ;
#83 = DIRECTION ( 'NONE',  ( 0.0000000000000000000, 0.0000000000000000000, -1.000000000000000000 ) ) ;
#84 = APPLICATION_PROTOCOL_DEFINITION ( 'draft international standard', 'automotive_design', 1998, #253 ) ;
#85 =( NAMED_UNIT ( * ) PLANE_ANGLE_UNIT ( ) SI_UNIT ( $, .RADIAN. ) );
#86 = ADVANCED_FACE ( 'NONE', ( #140, #147 ), #279, .F. ) ;
#87 = ORIENTED_EDGE ( 'NONE', *, *, #238, .T. ) ;
#88 = PRODUCT_CONTEXT ( 'NONE', #192, 'mechanical' ) ;
#89 = CARTESIAN_POINT ( 'NONE',  ( -10.50000000000000000, -0.1869999999999999996, 10.50000000000000000 ) ) ;
#90 =( NAMED_UNIT ( * ) PLANE_ANGLE_UNIT ( ) SI_UNIT ( $, .RADIAN. ) );
#91 = VECTOR ( 'NONE', #128, 39.37007874015748143 ) ;
#92 = CIRCLE ( 'NONE', #15, 0.1560000000000001941 ) ;
#93 = ORIENTED_EDGE ( 'NONE', *, *, #121, .T. ) ;
#94 = EDGE_CURVE ( 'NONE', #243, #243, #4, .T. ) ;
#95 = PRESENTATION_STYLE_ASSIGNMENT (( #254 ) ) ;
#96 = AXIS2_PLACEMENT_3D ( 'NONE', #60, #115, #335 ) ;
#97 = VECTOR ( 'NONE', #24, 39.37007874015748143 ) ;
#98 = ORIENTED_EDGE ( 'NONE', *, *, #74, .T. ) ;
#99 = EDGE_CURVE ( 'NONE', #311, #179, #260, .T. ) ;
#100 = ORIENTED_EDGE ( 'NONE', *, *, #308, .F. ) ;
#101 = CARTESIAN_POINT ( 'NONE',  ( 10.50000000000000000, -0.1869999999999999996, -10.50000000000000000 ) ) ;
#102 = ORIENTED_EDGE ( 'NONE', *, *, #154, .F. ) ;
#103 = DIRECTION ( 'NONE',  ( 0.0000000000000000000, 1.000000000000000000, 0.0000000000000000000 ) ) ;
#104 = DIRECTION ( 'NONE',  ( -0.0000000000000000000, -1.000000000000000000, -0.0000000000000000000 ) ) ;
#105 = VECTOR ( 'NONE', #304, 39.37007874015748143 ) ;
#106 = EDGE_LOOP ( 'NONE', ( #119 ) ) ;
#107 = DIRECTION ( 'NONE',  ( 0.0000000000000000000, -0.0000000000000000000, 1.000000000000000000 ) ) ;
#108 = STYLED_ITEM ( 'NONE', ( #95 ), #298 ) ;
#109 = CARTESIAN_POINT ( 'NONE',  ( 10.50000000000000000, -0.1869999999999999996, -10.50000000000000000 ) ) ;
#110 = ORIENTED_EDGE ( 'NONE', *, *, #70, .T. ) ;
#111 = DIRECTION ( 'NONE',  ( -0.0000000000000000000, -1.000000000000000000, -0.0000000000000000000 ) ) ;
#112 = CARTESIAN_POINT ( 'NONE',  ( 10.50000000000000000, 0.0000000000000000000, 10.50000000000000000 ) ) ;
#113 = CARTESIAN_POINT ( 'NONE',  ( 0.0000000000000000000, 0.0000000000000000000, 10.50000000000000000 ) ) ;
#114 = FACE_OUTER_BOUND ( 'NONE', #41, .T. ) ;
#115 = DIRECTION ( 'NONE',  ( -0.0000000000000000000, 1.000000000000000000, 0.0000000000000000000 ) ) ;
#116 = MECHANICAL_DESIGN_GEOMETRIC_PRESENTATION_REPRESENTATION (  '', ( #40 ), #3 ) ;
#117 = LINE ( 'NONE', #184, #326 ) ;
#118 = FACE_BOUND ( 'NONE', #47, .T. ) ;
#119 = ORIENTED_EDGE ( 'NONE', *, *, #94, .F. ) ;
#120 = EDGE_LOOP ( 'NONE', ( #190, #173, #294, #38 ) ) ;
#121 = EDGE_CURVE ( 'NONE', #250, #244, #199, .T. ) ;
#122 = DIRECTION ( 'NONE',  ( -1.000000000000000000, 0.0000000000000000000, 0.0000000000000000000 ) ) ;
#123 = PRESENTATION_LAYER_ASSIGNMENT (  '', '', ( #108 ) ) ;
#124 = VECTOR ( 'NONE', #75, 39.37007874015748143 ) ;
#125 = CARTESIAN_POINT ( 'NONE',  ( 10.50000000000000000, 0.0000000000000000000, -10.50000000000000000 ) ) ;
#126 = EDGE_LOOP ( 'NONE', ( #209, #321, #135, #316 ) ) ;
#127 = PLANE ( 'NONE',  #200 ) ;
#128 = DIRECTION ( 'NONE',  ( -0.0000000000000000000, 1.000000000000000000, 0.0000000000000000000 ) ) ;
#129 = EDGE_CURVE ( 'NONE', #244, #142, #45, .T. ) ;
#130 = CARTESIAN_POINT ( 'NONE',  ( 10.50000000000000000, 0.0000000000000000000, -10.50000000000000000 ) ) ;
#131 =( LENGTH_UNIT ( ) NAMED_UNIT ( * ) SI_UNIT ( $, .METRE. ) );
#132 = DIMENSIONAL_EXPONENTS ( 1.000000000000000000, 0.0000000000000000000, 0.0000000000000000000, 0.0000000000000000000, 0.0000000000000000000, 0.0000000000000000000, 0.0000000000000000000 ) ;
#133 = LINE ( 'NONE', #89, #63 ) ;
#134 = DIRECTION ( 'NONE',  ( 0.0000000000000000000, 1.000000000000000000, 0.0000000000000000000 ) ) ;
#135 = ORIENTED_EDGE ( 'NONE', *, *, #129, .T. ) ;
#136 = EDGE_CURVE ( 'NONE', #179, #17, #194, .T. ) ;
#137 = CARTESIAN_POINT ( 'NONE',  ( -9.625000000000000000, 0.0000000000000000000, 9.781000000000000583 ) ) ;
#138 =( CONVERSION_BASED_UNIT ( 'INCH', #227 ) LENGTH_UNIT ( ) NAMED_UNIT ( #28 ) );
#139 = AXIS2_PLACEMENT_3D ( 'NONE', #342, #233, #346 ) ;
#140 = FACE_OUTER_BOUND ( 'NONE', #153, .T. ) ;
#141 = CYLINDRICAL_SURFACE ( 'NONE', #255, 0.1560000000000001941 ) ;
#142 = VERTEX_POINT ( 'NONE', #268 ) ;
#143 = VERTEX_POINT ( 'NONE', #322 ) ;
#144 = PRODUCT_DEFINITION_SHAPE ( 'NONE', 'NONE',  #320 ) ;
#145 = VERTEX_POINT ( 'NONE', #328 ) ;
#146 = FACE_OUTER_BOUND ( 'NONE', #126, .T. ) ;
#147 = FACE_OUTER_BOUND ( 'NONE', #106, .T. ) ;
#148 = ORIENTED_EDGE ( 'NONE', *, *, #94, .T. ) ;
#149 = AXIS2_PLACEMENT_3D ( 'NONE', #151, #48, #283 ) ;
#150 = DIRECTION ( 'NONE',  ( -0.0000000000000000000, -1.000000000000000000, -0.0000000000000000000 ) ) ;
#151 = CARTESIAN_POINT ( 'NONE',  ( 9.625000000000000000, 0.0000000000000000000, 9.625000000000000000 ) ) ;
#152 = VERTEX_POINT ( 'NONE', #257 ) ;
#153 = EDGE_LOOP ( 'NONE', ( #102 ) ) ;
#154 = EDGE_CURVE ( 'NONE', #276, #276, #336, .T. ) ;
#155 = UNCERTAINTY_MEASURE_WITH_UNIT (LENGTH_MEASURE( 1.000000000000000082E-05 ), #166, 'distance_accuracy_value', 'NONE');
#156 = DIRECTION ( 'NONE',  ( 0.0000000000000000000, 0.0000000000000000000, 1.000000000000000000 ) ) ;
#157 = VERTEX_POINT ( 'NONE', #272 ) ;
#158 = AXIS2_PLACEMENT_3D ( 'NONE', #212, #269, #107 ) ;
#159 = FACE_OUTER_BOUND ( 'NONE', #23, .T. ) ;
#160 = ORIENTED_EDGE ( 'NONE', *, *, #174, .F. ) ;
#161 = DIRECTION ( 'NONE',  ( 0.0000000000000000000, 0.0000000000000000000, 1.000000000000000000 ) ) ;
#162 = CARTESIAN_POINT ( 'NONE',  ( -10.50000000000000000, 0.0000000000000000000, 10.50000000000000000 ) ) ;
#163 = FILL_AREA_STYLE_COLOUR ( '', #275 ) ;
#164 = FACE_OUTER_BOUND ( 'NONE', #186, .T. ) ;
#165 = EDGE_LOOP ( 'NONE', ( #68 ) ) ;
#166 =( CONVERSION_BASED_UNIT ( 'INCH', #242 ) LENGTH_UNIT ( ) NAMED_UNIT ( #340 ) );
#167 = FILL_AREA_STYLE ('',( #163 ) ) ;
#168 = ADVANCED_BREP_SHAPE_REPRESENTATION ( 'PVCBP-2424-P10', ( #298, #79 ), #66 ) ;
#169 = CARTESIAN_POINT ( 'NONE',  ( -9.625000000000000000, -0.1869999999999999996, -9.468999999999999417 ) ) ;
#170 = EDGE_LOOP ( 'NONE', ( #98 ) ) ;
#171 = AXIS2_PLACEMENT_3D ( 'NONE', #180, #183, #239 ) ;
#172 = EDGE_LOOP ( 'NONE', ( #223 ) ) ;
#173 = ORIENTED_EDGE ( 'NONE', *, *, #99, .F. ) ;
#174 = EDGE_CURVE ( 'NONE', #143, #17, #117, .T. ) ;
#175 = SHAPE_DEFINITION_REPRESENTATION ( #144, #168 ) ;
#176 = EDGE_LOOP ( 'NONE', ( #301, #160, #46, #215 ) ) ;
#177 = EDGE_CURVE ( 'NONE', #338, #338, #306, .T. ) ;
#178 = DIRECTION ( 'NONE',  ( -1.000000000000000000, 0.0000000000000000000, -0.0000000000000000000 ) ) ;
#179 = VERTEX_POINT ( 'NONE', #130 ) ;
#180 = CARTESIAN_POINT ( 'NONE',  ( -9.625000000000000000, 0.0000000000000000000, 9.625000000000000000 ) ) ;
#181 = EDGE_LOOP ( 'NONE', ( #280, #327, #195, #110 ) ) ;
#182 = PRODUCT_DEFINITION_CONTEXT ( 'detailed design', #253, 'design' ) ;
#183 = DIRECTION ( 'NONE',  ( -0.0000000000000000000, -1.000000000000000000, -0.0000000000000000000 ) ) ;
#184 = CARTESIAN_POINT ( 'NONE',  ( 10.50000000000000000, -0.1869999999999999996, 10.50000000000000000 ) ) ;
#185 = SURFACE_STYLE_FILL_AREA ( #31 ) ;
#186 = EDGE_LOOP ( 'NONE', ( #266 ) ) ;
#187 = DIRECTION ( 'NONE',  ( 0.0000000000000000000, -1.000000000000000000, -0.0000000000000000000 ) ) ;
#188 = DIRECTION ( 'NONE',  ( 1.000000000000000000, 0.0000000000000000000, -0.0000000000000000000 ) ) ;
#189 = AXIS2_PLACEMENT_3D ( 'NONE', #125, #208, #178 ) ;
#190 = ORIENTED_EDGE ( 'NONE', *, *, #136, .F. ) ;
#191 = FILL_AREA_STYLE_COLOUR ( '', #332 ) ;
#192 = APPLICATION_CONTEXT ( 'automotive_design' ) ;
#193 =( LENGTH_UNIT ( ) NAMED_UNIT ( * ) SI_UNIT ( $, .METRE. ) );
#194 = LINE ( 'NONE', #290, #271 ) ;
#195 = ORIENTED_EDGE ( 'NONE', *, *, #21, .T. ) ;
#196 =( CONVERSION_BASED_UNIT ( 'INCH', #213 ) LENGTH_UNIT ( ) NAMED_UNIT ( #132 ) );
#197 = APPLICATION_PROTOCOL_DEFINITION ( 'draft international standard', 'automotive_design', 1998, #192 ) ;
#198 = EDGE_CURVE ( 'NONE', #143, #311, #72, .T. ) ;
#199 = LINE ( 'NONE', #315, #124 ) ;
#200 = AXIS2_PLACEMENT_3D ( 'NONE', #29, #216, #83 ) ;
#201 = UNCERTAINTY_MEASURE_WITH_UNIT (LENGTH_MEASURE( 1.000000000000000082E-05 ), #196, 'distance_accuracy_value', 'NONE');
#202 = CIRCLE ( 'NONE', #211, 0.1560000000000001941 ) ;
#203 = ORIENTED_EDGE ( 'NONE', *, *, #341, .T. ) ;
#204 = DIRECTION ( 'NONE',  ( -0.0000000000000000000, -1.000000000000000000, -0.0000000000000000000 ) ) ;
#205 = CYLINDRICAL_SURFACE ( 'NONE', #149, 0.1560000000000001941 ) ;
#206 = AXIS2_PLACEMENT_3D ( 'NONE', #5, #56, #247 ) ;
#207 = CARTESIAN_POINT ( 'NONE',  ( 0.0000000000000000000, 0.0000000000000000000, -10.50000000000000000 ) ) ;
#208 = DIRECTION ( 'NONE',  ( 0.0000000000000000000, 0.0000000000000000000, -1.000000000000000000 ) ) ;
#209 = ORIENTED_EDGE ( 'NONE', *, *, #198, .T. ) ;
#210 = EDGE_LOOP ( 'NONE', ( #282 ) ) ;
#211 = AXIS2_PLACEMENT_3D ( 'NONE', #241, #2, #156 ) ;
#212 = CARTESIAN_POINT ( 'NONE',  ( 0.0000000000000000000, -0.1869999999999999996, 0.0000000000000000000 ) ) ;
#213 = LENGTH_MEASURE_WITH_UNIT ( LENGTH_MEASURE( 0.02539999999999999897 ), #131 );
#214 = VECTOR ( 'NONE', #234, 39.37007874015748143 ) ;
#215 = ORIENTED_EDGE ( 'NONE', *, *, #70, .F. ) ;
#216 = DIRECTION ( 'NONE',  ( 1.000000000000000000, -0.0000000000000000000, 0.0000000000000000000 ) ) ;
#217 = PRODUCT_DEFINITION_FORMATION_WITH_SPECIFIED_SOURCE ( 'ANY', '', #259, .NOT_KNOWN. ) ;
#218 = SURFACE_SIDE_STYLE ('',( #185 ) ) ;
#219 = SURFACE_STYLE_USAGE ( .BOTH. , #329 ) ;
#220 = ADVANCED_FACE ( 'NONE', ( #231, #236, #221, #118, #16 ), #80, .F. ) ;
#221 = FACE_BOUND ( 'NONE', #34, .T. ) ;
#222 = CARTESIAN_POINT ( 'NONE',  ( 0.0000000000000000000, 0.0000000000000000000, 0.0000000000000000000 ) ) ;
#223 = ORIENTED_EDGE ( 'NONE', *, *, #238, .F. ) ;
#224 = VERTEX_POINT ( 'NONE', #6 ) ;
#225 = CARTESIAN_POINT ( 'NONE',  ( 9.625000000000000000, 0.0000000000000000000, 9.625000000000000000 ) ) ;
#226 = DIRECTION ( 'NONE',  ( 0.0000000000000000000, 0.0000000000000000000, 1.000000000000000000 ) ) ;
#227 = LENGTH_MEASURE_WITH_UNIT ( LENGTH_MEASURE( 0.02539999999999999897 ), #193 );
#228 = ORIENTED_EDGE ( 'NONE', *, *, #21, .F. ) ;
#229 = FACE_BOUND ( 'NONE', #170, .T. ) ;
#230 = CLOSED_SHELL ( 'NONE', ( #302, #273, #86, #32, #61, #251, #7, #36, #274, #220 ) ) ;
#231 = FACE_BOUND ( 'NONE', #54, .T. ) ;
#232 = CYLINDRICAL_SURFACE ( 'NONE', #330, 0.1560000000000001941 ) ;
#233 = DIRECTION ( 'NONE',  ( 0.0000000000000000000, 1.000000000000000000, 0.0000000000000000000 ) ) ;
#234 = DIRECTION ( 'NONE',  ( -0.0000000000000000000, 0.0000000000000000000, -1.000000000000000000 ) ) ;
#235 = DIRECTION ( 'NONE',  ( 0.0000000000000000000, 0.0000000000000000000, 1.000000000000000000 ) ) ;
#236 = FACE_BOUND ( 'NONE', #210, .T. ) ;
#237 = EDGE_LOOP ( 'NONE', ( #64 ) ) ;
#238 = EDGE_CURVE ( 'NONE', #51, #51, #202, .T. ) ;
#239 = DIRECTION ( 'NONE',  ( 0.0000000000000000000, 0.0000000000000000000, 1.000000000000000000 ) ) ;
#240 = CARTESIAN_POINT ( 'NONE',  ( 9.625000000000000000, 0.0000000000000000000, -9.625000000000000000 ) ) ;
#241 = CARTESIAN_POINT ( 'NONE',  ( -9.625000000000000000, -0.1869999999999999996, -9.625000000000000000 ) ) ;
#242 = LENGTH_MEASURE_WITH_UNIT ( LENGTH_MEASURE( 0.02539999999999999897 ), #300 );
#243 = VERTEX_POINT ( 'NONE', #137 ) ;
#244 = VERTEX_POINT ( 'NONE', #324 ) ;
#245 = DIRECTION ( 'NONE',  ( 0.0000000000000000000, 0.0000000000000000000, 1.000000000000000000 ) ) ;
#246 = UNCERTAINTY_MEASURE_WITH_UNIT (LENGTH_MEASURE( 1.000000000000000082E-05 ), #138, 'distance_accuracy_value', 'NONE');
#247 = DIRECTION ( 'NONE',  ( 0.0000000000000000000, 0.0000000000000000000, 1.000000000000000000 ) ) ;
#248 = AXIS2_PLACEMENT_3D ( 'NONE', #26, #58, #161 ) ;
#249 = CARTESIAN_POINT ( 'NONE',  ( -10.50000000000000000, 0.0000000000000000000, 10.50000000000000000 ) ) ;
#250 = VERTEX_POINT ( 'NONE', #291 ) ;
#251 = ADVANCED_FACE ( 'NONE', ( #146 ), #25, .T. ) ;
#252 =( NAMED_UNIT ( * ) SI_UNIT ( $, .STERADIAN. ) SOLID_ANGLE_UNIT ( ) );
#253 = APPLICATION_CONTEXT ( 'automotive_design' ) ;
#254 = SURFACE_STYLE_USAGE ( .BOTH. , #218 ) ;
#255 = AXIS2_PLACEMENT_3D ( 'NONE', #318, #267, #295 ) ;
#256 = LINE ( 'NONE', #113, #105 ) ;
#257 = CARTESIAN_POINT ( 'NONE',  ( 9.625000000000000000, 0.0000000000000000000, -9.468999999999999417 ) ) ;
#258 = ORIENTED_EDGE ( 'NONE', *, *, #261, .F. ) ;
#259 = PRODUCT ( 'PVCBP-2424-P10', 'PVCBP-2424-P10', '', ( #88 ) ) ;
#260 = LINE ( 'NONE', #264, #214 ) ;
#261 = EDGE_CURVE ( 'NONE', #157, #157, #287, .T. ) ;
#262 = CIRCLE ( 'NONE', #312, 0.1560000000000001941 ) ;
#263 = AXIS2_PLACEMENT_3D ( 'NONE', #55, #104, #78 ) ;
#264 = CARTESIAN_POINT ( 'NONE',  ( 10.50000000000000000, 0.0000000000000000000, 0.0000000000000000000 ) ) ;
#265 = FACE_OUTER_BOUND ( 'NONE', #172, .T. ) ;
#266 = ORIENTED_EDGE ( 'NONE', *, *, #177, .F. ) ;
#267 = DIRECTION ( 'NONE',  ( 0.0000000000000000000, 1.000000000000000000, 0.0000000000000000000 ) ) ;
#268 = CARTESIAN_POINT ( 'NONE',  ( -10.50000000000000000, -0.1869999999999999996, 10.50000000000000000 ) ) ;
#269 = DIRECTION ( 'NONE',  ( -0.0000000000000000000, 1.000000000000000000, 0.0000000000000000000 ) ) ;
#270 = PRESENTATION_STYLE_ASSIGNMENT (( #219 ) ) ;
#271 = VECTOR ( 'NONE', #150, 39.37007874015748143 ) ;
#272 = CARTESIAN_POINT ( 'NONE',  ( 9.625000000000000000, -0.1869999999999999996, -9.468999999999999417 ) ) ;
#273 = ADVANCED_FACE ( 'NONE', ( #265, #164 ), #141, .F. ) ;
#274 = ADVANCED_FACE ( 'NONE', ( #319 ), #127, .T. ) ;
#275 = COLOUR_RGB ( '',0.7921568627450980005, 0.8196078431372548767, 0.9333333333333333481 ) ;
#276 = VERTEX_POINT ( 'NONE', #35 ) ;
#277 = FACE_OUTER_BOUND ( 'NONE', #12, .T. ) ;
#278 = PRESENTATION_LAYER_ASSIGNMENT (  '', '', ( #40 ) ) ;
#279 = CYLINDRICAL_SURFACE ( 'NONE', #139, 0.1560000000000001941 ) ;
#280 = ORIENTED_EDGE ( 'NONE', *, *, #129, .F. ) ;
#281 = ORIENTED_EDGE ( 'NONE', *, *, #288, .T. ) ;
#282 = ORIENTED_EDGE ( 'NONE', *, *, #154, .T. ) ;
#283 = DIRECTION ( 'NONE',  ( 0.0000000000000000000, 0.0000000000000000000, 1.000000000000000000 ) ) ;
#284 = ORIENTED_EDGE ( 'NONE', *, *, #82, .F. ) ;
#285 = CARTESIAN_POINT ( 'NONE',  ( -10.50000000000000000, 0.0000000000000000000, -10.50000000000000000 ) ) ;
#286 = CARTESIAN_POINT ( 'NONE',  ( -10.50000000000000000, -0.1869999999999999996, -10.50000000000000000 ) ) ;
#287 = CIRCLE ( 'NONE', #248, 0.1560000000000001941 ) ;
#288 = EDGE_CURVE ( 'NONE', #17, #224, #52, .T. ) ;
#289 = EDGE_LOOP ( 'NONE', ( #148 ) ) ;
#290 = CARTESIAN_POINT ( 'NONE',  ( 10.50000000000000000, 0.0000000000000000000, -10.50000000000000000 ) ) ;
#291 = CARTESIAN_POINT ( 'NONE',  ( -10.50000000000000000, 0.0000000000000000000, -10.50000000000000000 ) ) ;
#292 = DIRECTION ( 'NONE',  ( -1.000000000000000000, 0.0000000000000000000, -0.0000000000000000000 ) ) ;
#293 = EDGE_LOOP ( 'NONE', ( #71 ) ) ;
#294 = ORIENTED_EDGE ( 'NONE', *, *, #198, .F. ) ;
#295 = DIRECTION ( 'NONE',  ( 0.0000000000000000000, 0.0000000000000000000, 1.000000000000000000 ) ) ;
#296 = PLANE ( 'NONE',  #96 ) ;
#297 = CARTESIAN_POINT ( 'NONE',  ( -9.625000000000000000, 0.0000000000000000000, -9.468999999999999417 ) ) ;
#298 = MANIFOLD_SOLID_BREP ( 'Imported1', #230 ) ;
#299 = VECTOR ( 'NONE', #292, 39.37007874015748143 ) ;
#300 =( LENGTH_UNIT ( ) NAMED_UNIT ( * ) SI_UNIT ( $, .METRE. ) );
#301 = ORIENTED_EDGE ( 'NONE', *, *, #288, .F. ) ;
#302 = ADVANCED_FACE ( 'NONE', ( #22, #309, #1, #229, #159 ), #296, .T. ) ;
#303 =( NAMED_UNIT ( * ) SI_UNIT ( $, .STERADIAN. ) SOLID_ANGLE_UNIT ( ) );
#304 = DIRECTION ( 'NONE',  ( 1.000000000000000000, 0.0000000000000000000, 0.0000000000000000000 ) ) ;
#305 = PRODUCT_RELATED_PRODUCT_CATEGORY ( 'part', '', ( #259 ) ) ;
#306 = CIRCLE ( 'NONE', #263, 0.1560000000000001941 ) ;
#307 = FACE_OUTER_BOUND ( 'NONE', #181, .T. ) ;
#308 = EDGE_CURVE ( 'NONE', #57, #57, #69, .T. ) ;
#309 = FACE_BOUND ( 'NONE', #289, .T. ) ;
#310 = LINE ( 'NONE', #286, #339 ) ;
#311 = VERTEX_POINT ( 'NONE', #112 ) ;
#312 = AXIS2_PLACEMENT_3D ( 'NONE', #65, #134, #331 ) ;
#313 = DIRECTION ( 'NONE',  ( -1.000000000000000000, -0.0000000000000000000, -0.0000000000000000000 ) ) ;
#314 = PLANE ( 'NONE',  #189 ) ;
#315 = CARTESIAN_POINT ( 'NONE',  ( -10.50000000000000000, 0.0000000000000000000, 0.0000000000000000000 ) ) ;
#316 = ORIENTED_EDGE ( 'NONE', *, *, #323, .T. ) ;
#317 = CARTESIAN_POINT ( 'NONE',  ( 9.625000000000000000, 0.0000000000000000000, -9.625000000000000000 ) ) ;
#318 = CARTESIAN_POINT ( 'NONE',  ( -9.625000000000000000, 0.0000000000000000000, -9.625000000000000000 ) ) ;
#319 = FACE_OUTER_BOUND ( 'NONE', #120, .T. ) ;
#320 = PRODUCT_DEFINITION ( 'UNKNOWN', '', #217, #182 ) ;
#321 = ORIENTED_EDGE ( 'NONE', *, *, #341, .F. ) ;
#322 = CARTESIAN_POINT ( 'NONE',  ( 10.50000000000000000, -0.1869999999999999996, 10.50000000000000000 ) ) ;
#323 = EDGE_CURVE ( 'NONE', #142, #143, #133, .T. ) ;
#324 = CARTESIAN_POINT ( 'NONE',  ( -10.50000000000000000, 0.0000000000000000000, 10.50000000000000000 ) ) ;
#325 = DIRECTION ( 'NONE',  ( 0.0000000000000000000, 0.0000000000000000000, -1.000000000000000000 ) ) ;
#326 = VECTOR ( 'NONE', #325, 39.37007874015748143 ) ;
#327 = ORIENTED_EDGE ( 'NONE', *, *, #121, .F. ) ;
#328 = CARTESIAN_POINT ( 'NONE',  ( 9.625000000000000000, -0.1869999999999999996, 9.781000000000000583 ) ) ;
#329 = SURFACE_SIDE_STYLE ('',( #37 ) ) ;
#330 = AXIS2_PLACEMENT_3D ( 'NONE', #240, #103, #235 ) ;
#331 = DIRECTION ( 'NONE',  ( 0.0000000000000000000, 0.0000000000000000000, 1.000000000000000000 ) ) ;
#332 = COLOUR_RGB ( '',0.7921568627450980005, 0.8196078431372548767, 0.9333333333333333481 ) ;
#333 = CARTESIAN_POINT ( 'NONE',  ( 9.625000000000000000, 0.0000000000000000000, 9.781000000000000583 ) ) ;
#334 = ORIENTED_EDGE ( 'NONE', *, *, #136, .T. ) ;
#335 = DIRECTION ( 'NONE',  ( 0.0000000000000000000, -0.0000000000000000000, 1.000000000000000000 ) ) ;
#336 = CIRCLE ( 'NONE', #206, 0.1560000000000001941 ) ;
#337 = EDGE_CURVE ( 'NONE', #145, #145, #262, .T. ) ;
#338 = VERTEX_POINT ( 'NONE', #297 ) ;
#339 = VECTOR ( 'NONE', #20, 39.37007874015748143 ) ;
#340 = DIMENSIONAL_EXPONENTS ( 1.000000000000000000, 0.0000000000000000000, 0.0000000000000000000, 0.0000000000000000000, 0.0000000000000000000, 0.0000000000000000000, 0.0000000000000000000 ) ;
#341 = EDGE_CURVE ( 'NONE', #244, #311, #256, .T. ) ;
#342 = CARTESIAN_POINT ( 'NONE',  ( -9.625000000000000000, 0.0000000000000000000, 9.625000000000000000 ) ) ;
#343 = LINE ( 'NONE', #207, #27 ) ;
#344 = ORIENTED_EDGE ( 'NONE', *, *, #82, .T. ) ;
#345 = AXIS2_PLACEMENT_3D ( 'NONE', #162, #245, #188 ) ;
#346 = DIRECTION ( 'NONE',  ( 0.0000000000000000000, 0.0000000000000000000, 1.000000000000000000 ) ) ;
#347 = AXIS2_PLACEMENT_3D ( 'NONE', #77, #122, #50 ) ;
ENDSEC;
END-ISO-10303-21;
