ISO-10303-21;
HEADER;
/* Generated by software containing ST-Developer
 * from STEP Tools, Inc. (www.steptools.com) 
 */
/* OPTION: strings as raw bytes, not using required /X/ escapes */

FILE_DESCRIPTION(
/* description */ ('Unknown'),
/* implementation_level */ '2;1');

FILE_NAME(
/* name */ 'RIK23',
/* time_stamp */ '2016-07-06T14:16:19-04:00',
/* author */ ('Unknown'),
/* organization */ ('Unknown'),
/* preprocessor_version */ 'ST-DEVELOPER v16.7',
/* originating_system */ 'DEX',
/* authorisation */ $);

FILE_SCHEMA (('TECHNICAL_DATA_PACKAGING','AUTOMOTIVE_DESIGN {1 0 10303 214 3 1 1}'));
ENDSEC;

DATA;
#10=PROPERTY_DEFINITION_REPRESENTATION(#14,#12);
#11=PROPERTY_DEFINITION_REPRESENTATION(#15,#13);
#12=REPRESENTATION('',(#16),#453);
#13=REPRESENTATION('',(#17),#453);
#14=PROPERTY_DEFINITION('pmi validation property','',#458);
#15=PROPERTY_DEFINITION('pmi validation property','',#458);
#16=VALUE_REPRESENTATION_ITEM('number of annotations',COUNT_MEASURE(0.));
#17=VALUE_REPRESENTATION_ITEM('number of views',COUNT_MEASURE(0.));
#18=SHAPE_REPRESENTATION_RELATIONSHIP('','',#287,#19);
#19=ADVANCED_BREP_SHAPE_REPRESENTATION('',(#285),#453);
#20=CYLINDRICAL_SURFACE('',#297,11.1125);
#21=CYLINDRICAL_SURFACE('',#302,11.1125);
#22=CIRCLE('',#292,11.1125);
#23=CIRCLE('',#293,11.1125);
#24=CIRCLE('',#295,11.1125);
#25=CIRCLE('',#296,11.1125);
#26=ORIENTED_EDGE('',*,*,#98,.F.);
#27=ORIENTED_EDGE('',*,*,#99,.T.);
#28=ORIENTED_EDGE('',*,*,#100,.T.);
#29=ORIENTED_EDGE('',*,*,#101,.F.);
#30=ORIENTED_EDGE('',*,*,#102,.T.);
#31=ORIENTED_EDGE('',*,*,#103,.F.);
#32=ORIENTED_EDGE('',*,*,#104,.F.);
#33=ORIENTED_EDGE('',*,*,#105,.F.);
#34=ORIENTED_EDGE('',*,*,#106,.T.);
#35=ORIENTED_EDGE('',*,*,#107,.F.);
#36=ORIENTED_EDGE('',*,*,#108,.T.);
#37=ORIENTED_EDGE('',*,*,#102,.F.);
#38=ORIENTED_EDGE('',*,*,#109,.F.);
#39=ORIENTED_EDGE('',*,*,#110,.F.);
#40=ORIENTED_EDGE('',*,*,#111,.F.);
#41=ORIENTED_EDGE('',*,*,#112,.F.);
#42=ORIENTED_EDGE('',*,*,#113,.T.);
#43=ORIENTED_EDGE('',*,*,#114,.F.);
#44=ORIENTED_EDGE('',*,*,#115,.T.);
#45=ORIENTED_EDGE('',*,*,#100,.F.);
#46=ORIENTED_EDGE('',*,*,#116,.T.);
#47=ORIENTED_EDGE('',*,*,#117,.T.);
#48=ORIENTED_EDGE('',*,*,#98,.T.);
#49=ORIENTED_EDGE('',*,*,#118,.T.);
#50=ORIENTED_EDGE('',*,*,#119,.T.);
#51=ORIENTED_EDGE('',*,*,#120,.T.);
#52=ORIENTED_EDGE('',*,*,#121,.T.);
#53=ORIENTED_EDGE('',*,*,#122,.T.);
#54=ORIENTED_EDGE('',*,*,#123,.T.);
#55=ORIENTED_EDGE('',*,*,#124,.T.);
#56=ORIENTED_EDGE('',*,*,#104,.T.);
#57=ORIENTED_EDGE('',*,*,#125,.T.);
#58=ORIENTED_EDGE('',*,*,#107,.T.);
#59=ORIENTED_EDGE('',*,*,#126,.T.);
#60=ORIENTED_EDGE('',*,*,#116,.F.);
#61=ORIENTED_EDGE('',*,*,#127,.F.);
#62=ORIENTED_EDGE('',*,*,#121,.F.);
#63=ORIENTED_EDGE('',*,*,#128,.T.);
#64=ORIENTED_EDGE('',*,*,#112,.T.);
#65=ORIENTED_EDGE('',*,*,#129,.T.);
#66=ORIENTED_EDGE('',*,*,#124,.F.);
#67=ORIENTED_EDGE('',*,*,#130,.F.);
#68=ORIENTED_EDGE('',*,*,#109,.T.);
#69=ORIENTED_EDGE('',*,*,#105,.T.);
#70=ORIENTED_EDGE('',*,*,#122,.F.);
#71=ORIENTED_EDGE('',*,*,#129,.F.);
#72=ORIENTED_EDGE('',*,*,#111,.T.);
#73=ORIENTED_EDGE('',*,*,#131,.T.);
#74=ORIENTED_EDGE('',*,*,#123,.F.);
#75=ORIENTED_EDGE('',*,*,#131,.F.);
#76=ORIENTED_EDGE('',*,*,#110,.T.);
#77=ORIENTED_EDGE('',*,*,#130,.T.);
#78=ORIENTED_EDGE('',*,*,#132,.F.);
#79=ORIENTED_EDGE('',*,*,#114,.T.);
#80=ORIENTED_EDGE('',*,*,#133,.T.);
#81=ORIENTED_EDGE('',*,*,#119,.F.);
#82=ORIENTED_EDGE('',*,*,#101,.T.);
#83=ORIENTED_EDGE('',*,*,#115,.F.);
#84=ORIENTED_EDGE('',*,*,#132,.T.);
#85=ORIENTED_EDGE('',*,*,#118,.F.);
#86=ORIENTED_EDGE('',*,*,#133,.F.);
#87=ORIENTED_EDGE('',*,*,#113,.F.);
#88=ORIENTED_EDGE('',*,*,#128,.F.);
#89=ORIENTED_EDGE('',*,*,#120,.F.);
#90=ORIENTED_EDGE('',*,*,#126,.F.);
#91=ORIENTED_EDGE('',*,*,#106,.F.);
#92=ORIENTED_EDGE('',*,*,#99,.F.);
#93=ORIENTED_EDGE('',*,*,#117,.F.);
#94=ORIENTED_EDGE('',*,*,#103,.T.);
#95=ORIENTED_EDGE('',*,*,#108,.F.);
#96=ORIENTED_EDGE('',*,*,#127,.T.);
#97=ORIENTED_EDGE('',*,*,#125,.F.);
#98=EDGE_CURVE('',#134,#135,#158,.T.);
#99=EDGE_CURVE('',#134,#136,#159,.T.);
#100=EDGE_CURVE('',#136,#137,#160,.T.);
#101=EDGE_CURVE('',#135,#137,#161,.T.);
#102=EDGE_CURVE('',#138,#139,#162,.T.);
#103=EDGE_CURVE('',#140,#139,#163,.T.);
#104=EDGE_CURVE('',#141,#140,#164,.T.);
#105=EDGE_CURVE('',#138,#141,#165,.T.);
#106=EDGE_CURVE('',#136,#142,#166,.T.);
#107=EDGE_CURVE('',#143,#142,#22,.F.);
#108=EDGE_CURVE('',#143,#139,#167,.T.);
#109=EDGE_CURVE('',#144,#138,#168,.T.);
#110=EDGE_CURVE('',#145,#144,#169,.T.);
#111=EDGE_CURVE('',#146,#145,#170,.T.);
#112=EDGE_CURVE('',#147,#146,#171,.T.);
#113=EDGE_CURVE('',#147,#148,#172,.T.);
#114=EDGE_CURVE('',#149,#148,#23,.F.);
#115=EDGE_CURVE('',#149,#137,#173,.T.);
#116=EDGE_CURVE('',#150,#151,#24,.T.);
#117=EDGE_CURVE('',#151,#134,#174,.T.);
#118=EDGE_CURVE('',#135,#152,#175,.T.);
#119=EDGE_CURVE('',#152,#153,#25,.T.);
#120=EDGE_CURVE('',#153,#154,#176,.T.);
#121=EDGE_CURVE('',#154,#155,#177,.T.);
#122=EDGE_CURVE('',#155,#156,#178,.T.);
#123=EDGE_CURVE('',#156,#157,#179,.T.);
#124=EDGE_CURVE('',#157,#141,#180,.T.);
#125=EDGE_CURVE('',#140,#150,#181,.T.);
#126=EDGE_CURVE('',#142,#151,#182,.T.);
#127=EDGE_CURVE('',#143,#150,#183,.T.);
#128=EDGE_CURVE('',#154,#147,#184,.T.);
#129=EDGE_CURVE('',#146,#155,#185,.T.);
#130=EDGE_CURVE('',#144,#157,#186,.T.);
#131=EDGE_CURVE('',#145,#156,#187,.T.);
#132=EDGE_CURVE('',#149,#152,#188,.T.);
#133=EDGE_CURVE('',#148,#153,#189,.T.);
#134=VERTEX_POINT('',#380);
#135=VERTEX_POINT('',#381);
#136=VERTEX_POINT('',#383);
#137=VERTEX_POINT('',#385);
#138=VERTEX_POINT('',#389);
#139=VERTEX_POINT('',#390);
#140=VERTEX_POINT('',#392);
#141=VERTEX_POINT('',#394);
#142=VERTEX_POINT('',#398);
#143=VERTEX_POINT('',#400);
#144=VERTEX_POINT('',#403);
#145=VERTEX_POINT('',#405);
#146=VERTEX_POINT('',#407);
#147=VERTEX_POINT('',#409);
#148=VERTEX_POINT('',#411);
#149=VERTEX_POINT('',#413);
#150=VERTEX_POINT('',#417);
#151=VERTEX_POINT('',#418);
#152=VERTEX_POINT('',#421);
#153=VERTEX_POINT('',#423);
#154=VERTEX_POINT('',#425);
#155=VERTEX_POINT('',#427);
#156=VERTEX_POINT('',#429);
#157=VERTEX_POINT('',#431);
#158=LINE('',#379,#190);
#159=LINE('',#382,#191);
#160=LINE('',#384,#192);
#161=LINE('',#386,#193);
#162=LINE('',#388,#194);
#163=LINE('',#391,#195);
#164=LINE('',#393,#196);
#165=LINE('',#395,#197);
#166=LINE('',#397,#198);
#167=LINE('',#401,#199);
#168=LINE('',#402,#200);
#169=LINE('',#404,#201);
#170=LINE('',#406,#202);
#171=LINE('',#408,#203);
#172=LINE('',#410,#204);
#173=LINE('',#414,#205);
#174=LINE('',#419,#206);
#175=LINE('',#420,#207);
#176=LINE('',#424,#208);
#177=LINE('',#426,#209);
#178=LINE('',#428,#210);
#179=LINE('',#430,#211);
#180=LINE('',#432,#212);
#181=LINE('',#433,#213);
#182=LINE('',#435,#214);
#183=LINE('',#436,#215);
#184=LINE('',#438,#216);
#185=LINE('',#439,#217);
#186=LINE('',#441,#218);
#187=LINE('',#443,#219);
#188=LINE('',#446,#220);
#189=LINE('',#447,#221);
#190=VECTOR('',#311,1000.);
#191=VECTOR('',#312,1000.);
#192=VECTOR('',#313,1000.);
#193=VECTOR('',#314,1000.);
#194=VECTOR('',#317,1000.);
#195=VECTOR('',#318,1000.);
#196=VECTOR('',#319,1000.);
#197=VECTOR('',#320,1000.);
#198=VECTOR('',#323,1000.);
#199=VECTOR('',#326,1000.);
#200=VECTOR('',#327,1000.);
#201=VECTOR('',#328,1000.);
#202=VECTOR('',#329,1000.);
#203=VECTOR('',#330,1000.);
#204=VECTOR('',#331,1000.);
#205=VECTOR('',#334,1000.);
#206=VECTOR('',#339,1000.);
#207=VECTOR('',#340,1000.);
#208=VECTOR('',#343,1000.);
#209=VECTOR('',#344,1000.);
#210=VECTOR('',#345,1000.);
#211=VECTOR('',#346,1000.);
#212=VECTOR('',#347,1000.);
#213=VECTOR('',#348,1000.);
#214=VECTOR('',#351,1000.);
#215=VECTOR('',#352,1000.);
#216=VECTOR('',#355,1000.);
#217=VECTOR('',#356,1000.);
#218=VECTOR('',#359,1000.);
#219=VECTOR('',#362,1000.);
#220=VECTOR('',#367,1000.);
#221=VECTOR('',#368,1000.);
#222=EDGE_LOOP('',(#26,#27,#28,#29));
#223=EDGE_LOOP('',(#30,#31,#32,#33));
#224=EDGE_LOOP('',(#34,#35,#36,#37,#38,#39,#40,#41,#42,#43,#44,#45));
#225=EDGE_LOOP('',(#46,#47,#48,#49,#50,#51,#52,#53,#54,#55,#56,#57));
#226=EDGE_LOOP('',(#58,#59,#60,#61));
#227=EDGE_LOOP('',(#62,#63,#64,#65));
#228=EDGE_LOOP('',(#66,#67,#68,#69));
#229=EDGE_LOOP('',(#70,#71,#72,#73));
#230=EDGE_LOOP('',(#74,#75,#76,#77));
#231=EDGE_LOOP('',(#78,#79,#80,#81));
#232=EDGE_LOOP('',(#82,#83,#84,#85));
#233=EDGE_LOOP('',(#86,#87,#88,#89));
#234=EDGE_LOOP('',(#90,#91,#92,#93));
#235=EDGE_LOOP('',(#94,#95,#96,#97));
#236=FACE_BOUND('',#222,.T.);
#237=FACE_BOUND('',#223,.T.);
#238=FACE_BOUND('',#224,.T.);
#239=FACE_BOUND('',#225,.T.);
#240=FACE_BOUND('',#226,.T.);
#241=FACE_BOUND('',#227,.T.);
#242=FACE_BOUND('',#228,.T.);
#243=FACE_BOUND('',#229,.T.);
#244=FACE_BOUND('',#230,.T.);
#245=FACE_BOUND('',#231,.T.);
#246=FACE_BOUND('',#232,.T.);
#247=FACE_BOUND('',#233,.T.);
#248=FACE_BOUND('',#234,.T.);
#249=FACE_BOUND('',#235,.T.);
#250=PLANE('',#289);
#251=PLANE('',#290);
#252=PLANE('',#291);
#253=PLANE('',#294);
#254=PLANE('',#298);
#255=PLANE('',#299);
#256=PLANE('',#300);
#257=PLANE('',#301);
#258=PLANE('',#303);
#259=PLANE('',#304);
#260=PLANE('',#305);
#261=PLANE('',#306);
#262=ADVANCED_FACE('',(#236),#250,.T.);
#263=ADVANCED_FACE('',(#237),#251,.T.);
#264=ADVANCED_FACE('',(#238),#252,.F.);
#265=ADVANCED_FACE('',(#239),#253,.T.);
#266=ADVANCED_FACE('',(#240),#20,.F.);
#267=ADVANCED_FACE('',(#241),#254,.T.);
#268=ADVANCED_FACE('',(#242),#255,.T.);
#269=ADVANCED_FACE('',(#243),#256,.T.);
#270=ADVANCED_FACE('',(#244),#257,.T.);
#271=ADVANCED_FACE('',(#245),#21,.F.);
#272=ADVANCED_FACE('',(#246),#258,.T.);
#273=ADVANCED_FACE('',(#247),#259,.T.);
#274=ADVANCED_FACE('',(#248),#260,.T.);
#275=ADVANCED_FACE('',(#249),#261,.T.);
#276=CLOSED_SHELL('',(#262,#263,#264,#265,#266,#267,#268,#269,#270,#271,
#272,#273,#274,#275));
#277=STYLED_ITEM('',(#278),#285);
#278=PRESENTATION_STYLE_ASSIGNMENT((#279));
#279=SURFACE_STYLE_USAGE(.BOTH.,#280);
#280=SURFACE_SIDE_STYLE('',(#281));
#281=SURFACE_STYLE_FILL_AREA(#282);
#282=FILL_AREA_STYLE('',(#283));
#283=FILL_AREA_STYLE_COLOUR('',#284);
#284=COLOUR_RGB('',0.200000002980232,0.200000002980232,0.200000002980232);
#285=MANIFOLD_SOLID_BREP('',#276);
#286=SHAPE_DEFINITION_REPRESENTATION(#458,#287);
#287=SHAPE_REPRESENTATION('COM57164-23',(#288),#453);
#288=AXIS2_PLACEMENT_3D('',#377,#307,#308);
#289=AXIS2_PLACEMENT_3D('',#378,#309,#310);
#290=AXIS2_PLACEMENT_3D('',#387,#315,#316);
#291=AXIS2_PLACEMENT_3D('',#396,#321,#322);
#292=AXIS2_PLACEMENT_3D('',#399,#324,#325);
#293=AXIS2_PLACEMENT_3D('',#412,#332,#333);
#294=AXIS2_PLACEMENT_3D('',#415,#335,#336);
#295=AXIS2_PLACEMENT_3D('',#416,#337,#338);
#296=AXIS2_PLACEMENT_3D('',#422,#341,#342);
#297=AXIS2_PLACEMENT_3D('',#434,#349,#350);
#298=AXIS2_PLACEMENT_3D('',#437,#353,#354);
#299=AXIS2_PLACEMENT_3D('',#440,#357,#358);
#300=AXIS2_PLACEMENT_3D('',#442,#360,#361);
#301=AXIS2_PLACEMENT_3D('',#444,#363,#364);
#302=AXIS2_PLACEMENT_3D('',#445,#365,#366);
#303=AXIS2_PLACEMENT_3D('',#448,#369,#370);
#304=AXIS2_PLACEMENT_3D('',#449,#371,#372);
#305=AXIS2_PLACEMENT_3D('',#450,#373,#374);
#306=AXIS2_PLACEMENT_3D('',#451,#375,#376);
#307=DIRECTION('',(0.,0.,1.,0.));
#308=DIRECTION('',(1.,0.,0.,0.));
#309=DIRECTION('',(0.,1.,0.));
#310=DIRECTION('',(0.,0.,1.));
#311=DIRECTION('',(1.,0.,0.));
#312=DIRECTION('',(0.,0.,1.));
#313=DIRECTION('',(1.,0.,0.));
#314=DIRECTION('',(0.,0.,1.));
#315=DIRECTION('',(0.,1.,0.));
#316=DIRECTION('',(0.,0.,1.));
#317=DIRECTION('',(1.,0.,0.));
#318=DIRECTION('',(0.,0.,1.));
#319=DIRECTION('',(1.,0.,0.));
#320=DIRECTION('',(0.,0.,-1.));
#321=DIRECTION('',(0.,0.,-1.));
#322=DIRECTION('',(-1.,0.,0.));
#323=DIRECTION('',(0.,-1.,0.));
#324=DIRECTION('',(0.,0.,-1.));
#325=DIRECTION('',(-1.,0.,0.));
#326=DIRECTION('',(0.,1.,0.));
#327=DIRECTION('',(0.,1.,0.));
#328=DIRECTION('',(-1.,0.,0.));
#329=DIRECTION('',(0.,-1.,0.));
#330=DIRECTION('',(1.,0.,0.));
#331=DIRECTION('',(0.,-1.,0.));
#332=DIRECTION('',(0.,0.,-1.));
#333=DIRECTION('',(-1.,0.,0.));
#334=DIRECTION('',(0.,1.,0.));
#335=DIRECTION('',(0.,0.,-1.));
#336=DIRECTION('',(-1.,0.,0.));
#337=DIRECTION('',(0.,0.,1.));
#338=DIRECTION('',(0.,1.,0.));
#339=DIRECTION('',(0.,1.,0.));
#340=DIRECTION('',(0.,-1.,0.));
#341=DIRECTION('',(0.,0.,1.));
#342=DIRECTION('',(0.,1.,0.));
#343=DIRECTION('',(0.,1.,0.));
#344=DIRECTION('',(1.,0.,0.));
#345=DIRECTION('',(0.,-1.,0.));
#346=DIRECTION('',(-1.,0.,0.));
#347=DIRECTION('',(0.,1.,0.));
#348=DIRECTION('',(0.,-1.,0.));
#349=DIRECTION('',(0.,0.,-1.));
#350=DIRECTION('',(-1.,0.,0.));
#351=DIRECTION('',(0.,0.,-1.));
#352=DIRECTION('',(0.,0.,-1.));
#353=DIRECTION('',(0.,1.,0.));
#354=DIRECTION('',(0.,0.,1.));
#355=DIRECTION('',(0.,0.,1.));
#356=DIRECTION('',(0.,0.,-1.));
#357=DIRECTION('',(-1.,0.,0.));
#358=DIRECTION('',(0.,0.,1.));
#359=DIRECTION('',(0.,0.,-1.));
#360=DIRECTION('',(1.,0.,0.));
#361=DIRECTION('',(0.,0.,-1.));
#362=DIRECTION('',(0.,0.,-1.));
#363=DIRECTION('',(0.,-1.,0.));
#364=DIRECTION('',(0.,0.,-1.));
#365=DIRECTION('',(0.,0.,-1.));
#366=DIRECTION('',(-1.,0.,0.));
#367=DIRECTION('',(0.,0.,-1.));
#368=DIRECTION('',(0.,0.,-1.));
#369=DIRECTION('',(1.,0.,0.));
#370=DIRECTION('',(0.,0.,-1.));
#371=DIRECTION('',(-1.,0.,0.));
#372=DIRECTION('',(0.,0.,1.));
#373=DIRECTION('',(-1.,0.,0.));
#374=DIRECTION('',(0.,0.,1.));
#375=DIRECTION('',(1.,0.,0.));
#376=DIRECTION('',(0.,0.,-1.));
#377=CARTESIAN_POINT('',(0.,0.,0.));
#378=CARTESIAN_POINT('',(-307.1876,79.3749999999997,1.5875));
#379=CARTESIAN_POINT('',(-307.1876,79.3749999999997,0.));
#380=CARTESIAN_POINT('',(-249.24385,79.3749999999997,0.));
#381=CARTESIAN_POINT('',(249.24385,79.3749999999997,0.));
#382=CARTESIAN_POINT('',(-249.24385,79.3749999999997,-632.968225709957));
#383=CARTESIAN_POINT('',(-249.24385,79.3749999999997,1.5875));
#384=CARTESIAN_POINT('',(-307.1876,79.3749999999997,1.5875));
#385=CARTESIAN_POINT('',(249.24385,79.3749999999997,1.5875));
#386=CARTESIAN_POINT('',(249.24385,79.3749999999997,-632.968225709957));
#387=CARTESIAN_POINT('',(-307.1876,79.3749999999997,1.5875));
#388=CARTESIAN_POINT('',(-307.1876,79.3749999999997,1.5875));
#389=CARTESIAN_POINT('',(-307.1876,79.3749999999997,1.5875));
#390=CARTESIAN_POINT('',(-271.46885,79.3749999999997,1.5875));
#391=CARTESIAN_POINT('',(-271.46885,79.3749999999997,-632.968225709957));
#392=CARTESIAN_POINT('',(-271.46885,79.3749999999997,0.));
#393=CARTESIAN_POINT('',(-307.1876,79.3749999999997,0.));
#394=CARTESIAN_POINT('',(-307.1876,79.3749999999997,0.));
#395=CARTESIAN_POINT('',(-307.1876,79.3749999999997,1.5875));
#396=CARTESIAN_POINT('',(0.,0.,1.5875));
#397=CARTESIAN_POINT('',(-249.24385,79.3749999999997,1.5875));
#398=CARTESIAN_POINT('',(-249.24385,-34.9249999999997,1.5875));
#399=CARTESIAN_POINT('',(-260.35635,-34.9249999999997,1.58749999999996));
#400=CARTESIAN_POINT('',(-271.46885,-34.9249999999997,1.5875));
#401=CARTESIAN_POINT('',(-271.46885,-34.9249999999997,1.5875));
#402=CARTESIAN_POINT('',(-307.1876,-79.3749999999997,1.5875));
#403=CARTESIAN_POINT('',(-307.1876,-79.3749999999997,1.5875));
#404=CARTESIAN_POINT('',(307.1876,-79.3749999999997,1.5875));
#405=CARTESIAN_POINT('',(307.1876,-79.3749999999997,1.5875));
#406=CARTESIAN_POINT('',(307.1876,79.3749999999997,1.5875));
#407=CARTESIAN_POINT('',(307.1876,79.3749999999997,1.5875));
#408=CARTESIAN_POINT('',(-307.1876,79.3749999999997,1.5875));
#409=CARTESIAN_POINT('',(271.46885,79.3749999999997,1.5875));
#410=CARTESIAN_POINT('',(271.46885,-34.9249999999997,1.5875));
#411=CARTESIAN_POINT('',(271.46885,-34.9249999999997,1.5875));
#412=CARTESIAN_POINT('',(260.35635,-34.9249999999997,1.58749999999996));
#413=CARTESIAN_POINT('',(249.24385,-34.9249999999997,1.5875));
#414=CARTESIAN_POINT('',(249.24385,-34.9249999999997,1.5875));
#415=CARTESIAN_POINT('',(0.,0.,0.));
#416=CARTESIAN_POINT('',(-260.35635,-34.9249999999997,0.));
#417=CARTESIAN_POINT('',(-271.46885,-34.9249999999997,0.));
#418=CARTESIAN_POINT('',(-249.24385,-34.9249999999997,0.));
#419=CARTESIAN_POINT('',(-249.24385,0.,0.));
#420=CARTESIAN_POINT('',(249.24385,0.,0.));
#421=CARTESIAN_POINT('',(249.24385,-34.9249999999997,0.));
#422=CARTESIAN_POINT('',(260.35635,-34.9249999999997,0.));
#423=CARTESIAN_POINT('',(271.46885,-34.9249999999997,0.));
#424=CARTESIAN_POINT('',(271.46885,0.,0.));
#425=CARTESIAN_POINT('',(271.46885,79.3749999999997,0.));
#426=CARTESIAN_POINT('',(-307.1876,79.3749999999997,0.));
#427=CARTESIAN_POINT('',(307.1876,79.3749999999997,0.));
#428=CARTESIAN_POINT('',(307.1876,79.3749999999997,0.));
#429=CARTESIAN_POINT('',(307.1876,-79.3749999999997,0.));
#430=CARTESIAN_POINT('',(307.1876,-79.3749999999997,0.));
#431=CARTESIAN_POINT('',(-307.1876,-79.3749999999997,0.));
#432=CARTESIAN_POINT('',(-307.1876,-79.3749999999997,0.));
#433=CARTESIAN_POINT('',(-271.46885,0.,0.));
#434=CARTESIAN_POINT('',(-260.35635,-34.9249999999997,634.555725709957));
#435=CARTESIAN_POINT('',(-249.24385,-34.9249999999997,634.555725709957));
#436=CARTESIAN_POINT('',(-271.46885,-34.9249999999997,634.555725709957));
#437=CARTESIAN_POINT('',(-307.1876,79.3749999999997,1.5875));
#438=CARTESIAN_POINT('',(271.46885,79.3749999999997,-632.968225709957));
#439=CARTESIAN_POINT('',(307.1876,79.3749999999997,1.5875));
#440=CARTESIAN_POINT('',(-307.1876,-79.3749999999997,1.5875));
#441=CARTESIAN_POINT('',(-307.1876,-79.3749999999997,1.5875));
#442=CARTESIAN_POINT('',(307.1876,79.3749999999997,1.5875));
#443=CARTESIAN_POINT('',(307.1876,-79.3749999999997,1.5875));
#444=CARTESIAN_POINT('',(307.1876,-79.3749999999997,1.5875));
#445=CARTESIAN_POINT('',(260.35635,-34.9249999999997,634.555725709957));
#446=CARTESIAN_POINT('',(249.24385,-34.9249999999997,634.555725709957));
#447=CARTESIAN_POINT('',(271.46885,-34.9249999999997,634.555725709957));
#448=CARTESIAN_POINT('',(249.24385,-34.9249999999997,-632.968225709957));
#449=CARTESIAN_POINT('',(271.46885,-34.9249999999997,-632.968225709957));
#450=CARTESIAN_POINT('',(-249.24385,79.3749999999997,-632.968225709957));
#451=CARTESIAN_POINT('',(-271.46885,-34.9249999999997,-632.968225709957));
#452=MECHANICAL_DESIGN_GEOMETRIC_PRESENTATION_REPRESENTATION('',(#277),
#453);
#453=(
GEOMETRIC_REPRESENTATION_CONTEXT(3)
GLOBAL_UNCERTAINTY_ASSIGNED_CONTEXT((#454))
GLOBAL_UNIT_ASSIGNED_CONTEXT((#457,#456,#455))
REPRESENTATION_CONTEXT('COM57164-23','TOP_LEVEL_ASSEMBLY_PART')
);
#454=UNCERTAINTY_MEASURE_WITH_UNIT(LENGTH_MEASURE(0.005),#457,
'DISTANCE_ACCURACY_VALUE','Maximum Tolerance applied to model');
#455=(
NAMED_UNIT(*)
SI_UNIT($,.STERADIAN.)
SOLID_ANGLE_UNIT()
);
#456=(
NAMED_UNIT(*)
PLANE_ANGLE_UNIT()
SI_UNIT($,.RADIAN.)
);
#457=(
LENGTH_UNIT()
NAMED_UNIT(*)
SI_UNIT(.MILLI.,.METRE.)
);
#458=PRODUCT_DEFINITION_SHAPE('','',#459);
#459=PRODUCT_DEFINITION('','',#461,#460);
#460=PRODUCT_DEFINITION_CONTEXT('',#467,'design');
#461=PRODUCT_DEFINITION_FORMATION_WITH_SPECIFIED_SOURCE('','',#463,
 .NOT_KNOWN.);
#462=PRODUCT_RELATED_PRODUCT_CATEGORY('','',(#463));
#463=PRODUCT('COM57164-23','COM57164-23','COM57164-23',(#465));
#464=PRODUCT_CATEGORY('','');
#465=PRODUCT_CONTEXT('',#467,'mechanical');
#466=APPLICATION_PROTOCOL_DEFINITION('international standard',
'automotive_design',2010,#467);
#467=APPLICATION_CONTEXT(
'core data for automotive mechanical design processes');
ENDSEC;
END-ISO-10303-21;
