ISO-10303-21;
HEADER;
FILE_DESCRIPTION (( 'STEP AP214' ),
    '1' );
FILE_NAME ('RL-102-1.step',
    '2018-04-12T20:56:43',
    ( '' ),
    ( '' ),
    'SwSTEP 2.0',
    'SolidWorks 2017',
    '' );
FILE_SCHEMA (( 'AUTOMOTIVE_DESIGN' ));
ENDSEC;

DATA;
#1 = VECTOR ( 'NONE', #340, 39.37007874015748100 ) ;
#2 = DIRECTION ( 'NONE',  ( 0.0000000000000000000, 0.0000000000000000000, 1.000000000000000000 ) ) ;
#3 = DIRECTION ( 'NONE',  ( -0.0000000000000000000, -0.0000000000000000000, -1.000000000000000000 ) ) ;
#4 = CARTESIAN_POINT ( 'NONE',  ( 0.0000000000000000000, 0.0000000000000000000, 0.03149606299212599800 ) ) ;
#5 = EDGE_CURVE ( 'NONE', #137, #346, #41, .T. ) ;
#6 = AXIS2_PLACEMENT_3D ( 'NONE', #293, #34, #185 ) ;
#7 = VECTOR ( 'NONE', #270, 39.37007874015748100 ) ;
#8 = DIRECTION ( 'NONE',  ( -0.0000000000000000000, -0.0000000000000000000, -1.000000000000000000 ) ) ;
#9 = EDGE_LOOP ( 'NONE', ( #61, #126 ) ) ;
#10 = CARTESIAN_POINT ( 'NONE',  ( 0.0000000000000000000, 0.0000000000000000000, 0.0000000000000000000 ) ) ;
#11 = FACE_OUTER_BOUND ( 'NONE', #226, .T. ) ;
#12 = ORIENTED_EDGE ( 'NONE', *, *, #242, .F. ) ;
#13 = CARTESIAN_POINT ( 'NONE',  ( 0.0000000000000000000, 0.0000000000000000000, 0.2086614173228346600 ) ) ;
#14 = AXIS2_PLACEMENT_3D ( 'NONE', #292, #354, #383 ) ;
#15 = UNCERTAINTY_MEASURE_WITH_UNIT (LENGTH_MEASURE( 1.000000000000000100E-005 ), #273, 'distance_accuracy_value', 'NONE');
#16 = VECTOR ( 'NONE', #8, 39.37007874015748100 ) ;
#17 = EDGE_LOOP ( 'NONE', ( #74, #291, #28, #332 ) ) ;
#18 = ORIENTED_EDGE ( 'NONE', *, *, #172, .F. ) ;
#19 = ORIENTED_EDGE ( 'NONE', *, *, #281, .F. ) ;
#20 = DIMENSIONAL_EXPONENTS ( 1.000000000000000000, 0.0000000000000000000, 0.0000000000000000000, 0.0000000000000000000, 0.0000000000000000000, 0.0000000000000000000, 0.0000000000000000000 ) ;
#21 = PRODUCT_DEFINITION_SHAPE ( 'NONE', 'NONE',  #146 ) ;
#22 =( NAMED_UNIT ( * ) SI_UNIT ( $, .STERADIAN. ) SOLID_ANGLE_UNIT ( ) );
#23 = EDGE_CURVE ( 'NONE', #222, #283, #177, .T. ) ;
#24 = DIRECTION ( 'NONE',  ( -1.000000000000000000, 0.0000000000000000000, -0.0000000000000000000 ) ) ;
#25 = CIRCLE ( 'NONE', #218, 0.4921259842519685200 ) ;
#26 = CARTESIAN_POINT ( 'NONE',  ( 0.0000000000000000000, 0.0000000000000000000, 0.0000000000000000000 ) ) ;
#27 = AXIS2_PLACEMENT_3D ( 'NONE', #263, #351, #188 ) ;
#28 = ORIENTED_EDGE ( 'NONE', *, *, #366, .F. ) ;
#29 = CARTESIAN_POINT ( 'NONE',  ( 0.4921259842519685200, 0.0000000000000000000, 0.1062992125984252000 ) ) ;
#30 = ADVANCED_FACE ( 'NONE', ( #194 ), #165, .T. ) ;
#31 = DIRECTION ( 'NONE',  ( -0.0000000000000000000, -0.0000000000000000000, -1.000000000000000000 ) ) ;
#32 = DIRECTION ( 'NONE',  ( 1.000000000000000000, 0.0000000000000000000, 0.0000000000000000000 ) ) ;
#33 = ORIENTED_EDGE ( 'NONE', *, *, #225, .T. ) ;
#34 = DIRECTION ( 'NONE',  ( -0.0000000000000000000, -0.0000000000000000000, -1.000000000000000000 ) ) ;
#35 = CARTESIAN_POINT ( 'NONE',  ( 0.4527559055118110500, 0.0000000000000000000, 0.02755905511811023600 ) ) ;
#36 = PRODUCT ( 'RL-102-1', 'RL-102-1', '', ( #175 ) ) ;
#37 = DIRECTION ( 'NONE',  ( -1.000000000000000000, 0.0000000000000000000, 0.0000000000000000000 ) ) ;
#38 = ORIENTED_EDGE ( 'NONE', *, *, #348, .T. ) ;
#39 = CARTESIAN_POINT ( 'NONE',  ( 0.0000000000000000000, 0.0000000000000000000, 0.0000000000000000000 ) ) ;
#40 =( GEOMETRIC_REPRESENTATION_CONTEXT ( 3 ) GLOBAL_UNCERTAINTY_ASSIGNED_CONTEXT ( ( #15 ) ) GLOBAL_UNIT_ASSIGNED_CONTEXT ( ( #273, #76, #104 ) ) REPRESENTATION_CONTEXT ( 'NONE', 'WORKASPACE' ) );
#41 = CIRCLE ( 'NONE', #111, 0.4527559055118110500 ) ;
#42 = ORIENTED_EDGE ( 'NONE', *, *, #348, .F. ) ;
#43 = CARTESIAN_POINT ( 'NONE',  ( -0.4035433070866141800, 0.0000000000000000000, 0.2086614173228346600 ) ) ;
#44 = DIRECTION ( 'NONE',  ( 0.0000000000000000000, 0.0000000000000000000, 1.000000000000000000 ) ) ;
#45 = FILL_AREA_STYLE ('',( #344 ) ) ;
#46 = ORIENTED_EDGE ( 'NONE', *, *, #84, .F. ) ;
#47 = EDGE_CURVE ( 'NONE', #90, #265, #103, .T. ) ;
#48 = FACE_OUTER_BOUND ( 'NONE', #202, .T. ) ;
#49 = ORIENTED_EDGE ( 'NONE', *, *, #227, .T. ) ;
#50 = AXIS2_PLACEMENT_3D ( 'NONE', #324, #266, #153 ) ;
#51 = COLOUR_RGB ( '',0.8000000000000000400, 0.8000000000000000400, 0.8000000000000000400 ) ;
#52 = ORIENTED_EDGE ( 'NONE', *, *, #134, .F. ) ;
#53 = DIRECTION ( 'NONE',  ( 0.0000000000000000000, 0.0000000000000000000, 1.000000000000000000 ) ) ;
#54 = DIRECTION ( 'NONE',  ( 0.0000000000000000000, 0.0000000000000000000, -1.000000000000000000 ) ) ;
#55 = CARTESIAN_POINT ( 'NONE',  ( 0.4527559055118110500, 0.0000000000000000000, 0.03149606299212598400 ) ) ;
#56 = APPLICATION_CONTEXT ( 'automotive_design' ) ;
#57 = ADVANCED_FACE ( 'NONE', ( #115, #338 ), #259, .T. ) ;
#58 = CARTESIAN_POINT ( 'NONE',  ( 0.0000000000000000000, 0.0000000000000000000, 0.03149606299212599800 ) ) ;
#59 = FACE_OUTER_BOUND ( 'NONE', #350, .T. ) ;
#60 = PRESENTATION_LAYER_ASSIGNMENT (  '', '', ( #163 ) ) ;
#61 = ORIENTED_EDGE ( 'NONE', *, *, #134, .T. ) ;
#62 = VERTEX_POINT ( 'NONE', #318 ) ;
#63 = DIRECTION ( 'NONE',  ( 0.0000000000000000000, 0.0000000000000000000, -1.000000000000000000 ) ) ;
#64 =( NAMED_UNIT ( * ) PLANE_ANGLE_UNIT ( ) SI_UNIT ( $, .RADIAN. ) );
#65 = CYLINDRICAL_SURFACE ( 'NONE', #367, 0.4921259842519685200 ) ;
#66 =( LENGTH_UNIT ( ) NAMED_UNIT ( * ) SI_UNIT ( $, .METRE. ) );
#67 = DIRECTION ( 'NONE',  ( 1.000000000000000000, 0.0000000000000000000, 0.0000000000000000000 ) ) ;
#68 = EDGE_CURVE ( 'NONE', #62, #169, #341, .T. ) ;
#69 = AXIS2_PLACEMENT_3D ( 'NONE', #371, #44, #337 ) ;
#70 = DIRECTION ( 'NONE',  ( -0.0000000000000000000, -0.0000000000000000000, -1.000000000000000000 ) ) ;
#71 = AXIS2_PLACEMENT_3D ( 'NONE', #39, #136, #75 ) ;
#72 = FACE_OUTER_BOUND ( 'NONE', #171, .T. ) ;
#73 = ORIENTED_EDGE ( 'NONE', *, *, #227, .F. ) ;
#74 = ORIENTED_EDGE ( 'NONE', *, *, #190, .T. ) ;
#75 = DIRECTION ( 'NONE',  ( 1.000000000000000000, 0.0000000000000000000, 0.0000000000000000000 ) ) ;
#76 =( NAMED_UNIT ( * ) PLANE_ANGLE_UNIT ( ) SI_UNIT ( $, .RADIAN. ) );
#77 = CARTESIAN_POINT ( 'NONE',  ( 0.0000000000000000000, 0.0000000000000000000, 0.02755905511811023600 ) ) ;
#78 = DIRECTION ( 'NONE',  ( 0.0000000000000000000, 0.0000000000000000000, 1.000000000000000000 ) ) ;
#79 = SURFACE_STYLE_FILL_AREA ( #296 ) ;
#80 = AXIS2_PLACEMENT_3D ( 'NONE', #179, #31, #125 ) ;
#81 = LINE ( 'NONE', #105, #1 ) ;
#82 = ORIENTED_EDGE ( 'NONE', *, *, #269, .F. ) ;
#83 = CARTESIAN_POINT ( 'NONE',  ( 0.0000000000000000000, 0.0000000000000000000, 0.2165354330708661500 ) ) ;
#84 = EDGE_CURVE ( 'NONE', #62, #253, #271, .T. ) ;
#85 = DIRECTION ( 'NONE',  ( -1.000000000000000000, 0.0000000000000000000, 0.0000000000000000000 ) ) ;
#86 = AXIS2_PLACEMENT_3D ( 'NONE', #326, #2, #321 ) ;
#87 = AXIS2_PLACEMENT_3D ( 'NONE', #10, #107, #139 ) ;
#88 = CYLINDRICAL_SURFACE ( 'NONE', #180, 0.4527559055118110500 ) ;
#89 = FACE_OUTER_BOUND ( 'NONE', #183, .T. ) ;
#90 = VERTEX_POINT ( 'NONE', #174 ) ;
#91 = CARTESIAN_POINT ( 'NONE',  ( 0.0000000000000000000, 0.0000000000000000000, 0.2086614173228346600 ) ) ;
#92 = ADVANCED_FACE ( 'NONE', ( #11 ), #231, .T. ) ;
#93 = CARTESIAN_POINT ( 'NONE',  ( 0.0000000000000000000, 0.0000000000000000000, 0.2165354330708661500 ) ) ;
#94 = ADVANCED_FACE ( 'NONE', ( #89, #385 ), #121, .F. ) ;
#95 = EDGE_LOOP ( 'NONE', ( #310, #302, #96, #141 ) ) ;
#96 = ORIENTED_EDGE ( 'NONE', *, *, #306, .T. ) ;
#97 = DIRECTION ( 'NONE',  ( -1.000000000000000000, 0.0000000000000000000, 0.0000000000000000000 ) ) ;
#98 = AXIS2_PLACEMENT_3D ( 'NONE', #93, #63, #24 ) ;
#99 = CARTESIAN_POINT ( 'NONE',  ( 0.0000000000000000000, 0.0000000000000000000, 0.1062992125984252000 ) ) ;
#100 = SURFACE_SIDE_STYLE ('',( #79 ) ) ;
#101 = FACE_OUTER_BOUND ( 'NONE', #255, .T. ) ;
#102 = CARTESIAN_POINT ( 'NONE',  ( 0.4035433070866141800, 4.941980193409595200E-017, 0.2086614173228346600 ) ) ;
#103 = CIRCLE ( 'NONE', #173, 0.4035433070866141800 ) ;
#104 =( NAMED_UNIT ( * ) SI_UNIT ( $, .STERADIAN. ) SOLID_ANGLE_UNIT ( ) );
#105 = CARTESIAN_POINT ( 'NONE',  ( -0.4527559055118110500, 5.544660704801008400E-017, 0.02755905511811023600 ) ) ;
#106 = AXIS2_PLACEMENT_3D ( 'NONE', #250, #164, #110 ) ;
#107 = DIRECTION ( 'NONE',  ( -0.0000000000000000000, -0.0000000000000000000, -1.000000000000000000 ) ) ;
#108 = ORIENTED_EDGE ( 'NONE', *, *, #251, .T. ) ;
#109 = ORIENTED_EDGE ( 'NONE', *, *, #327, .T. ) ;
#110 = DIRECTION ( 'NONE',  ( -1.000000000000000000, 0.0000000000000000000, 0.0000000000000000000 ) ) ;
#111 = AXIS2_PLACEMENT_3D ( 'NONE', #294, #128, #32 ) ;
#112 = VECTOR ( 'NONE', #330, 39.37007874015748100 ) ;
#113 = ORIENTED_EDGE ( 'NONE', *, *, #285, .F. ) ;
#114 = MECHANICAL_DESIGN_GEOMETRIC_PRESENTATION_REPRESENTATION (  '', ( #163 ), #200 ) ;
#115 = FACE_BOUND ( 'NONE', #369, .T. ) ;
#116 = AXIS2_PLACEMENT_3D ( 'NONE', #206, #54, #356 ) ;
#117 = DIRECTION ( 'NONE',  ( 0.0000000000000000000, 0.0000000000000000000, -1.000000000000000000 ) ) ;
#118 = APPLICATION_CONTEXT ( 'automotive_design' ) ;
#119 = VERTEX_POINT ( 'NONE', #178 ) ;
#120 = DIRECTION ( 'NONE',  ( -1.000000000000000000, 0.0000000000000000000, -0.0000000000000000000 ) ) ;
#121 = PLANE ( 'NONE',  #98 ) ;
#122 = CARTESIAN_POINT ( 'NONE',  ( 0.0000000000000000000, 0.0000000000000000000, 0.2165354330708661500 ) ) ;
#123 = FACE_OUTER_BOUND ( 'NONE', #17, .T. ) ;
#124 = ORIENTED_EDGE ( 'NONE', *, *, #285, .T. ) ;
#125 = DIRECTION ( 'NONE',  ( -1.000000000000000000, 0.0000000000000000000, 0.0000000000000000000 ) ) ;
#126 = ORIENTED_EDGE ( 'NONE', *, *, #258, .T. ) ;
#127 = ADVANCED_FACE ( 'NONE', ( #203, #374 ), #314, .F. ) ;
#128 = DIRECTION ( 'NONE',  ( -0.0000000000000000000, -0.0000000000000000000, -1.000000000000000000 ) ) ;
#129 =( CONVERSION_BASED_UNIT ( 'INCH', #349 ) LENGTH_UNIT ( ) NAMED_UNIT ( #149 ) );
#130 = DIRECTION ( 'NONE',  ( 0.0000000000000000000, 0.0000000000000000000, 1.000000000000000000 ) ) ;
#131 = CIRCLE ( 'NONE', #229, 0.4921259842519685200 ) ;
#132 = ORIENTED_EDGE ( 'NONE', *, *, #5, .F. ) ;
#133 = FILL_AREA_STYLE_COLOUR ( '', #51 ) ;
#134 = EDGE_CURVE ( 'NONE', #237, #256, #131, .T. ) ;
#135 = FACE_OUTER_BOUND ( 'NONE', #95, .T. ) ;
#136 = DIRECTION ( 'NONE',  ( -0.0000000000000000000, -0.0000000000000000000, -1.000000000000000000 ) ) ;
#137 = VERTEX_POINT ( 'NONE', #55 ) ;
#138 = UNCERTAINTY_MEASURE_WITH_UNIT (LENGTH_MEASURE( 1.000000000000000100E-005 ), #129, 'distance_accuracy_value', 'NONE');
#139 = DIRECTION ( 'NONE',  ( 1.000000000000000000, 0.0000000000000000000, 0.0000000000000000000 ) ) ;
#140 = FACE_OUTER_BOUND ( 'NONE', #323, .T. ) ;
#141 = ORIENTED_EDGE ( 'NONE', *, *, #23, .F. ) ;
#142 = ORIENTED_EDGE ( 'NONE', *, *, #366, .T. ) ;
#143 = SURFACE_STYLE_FILL_AREA ( #45 ) ;
#144 =( NAMED_UNIT ( * ) PLANE_ANGLE_UNIT ( ) SI_UNIT ( $, .RADIAN. ) );
#145 = PRESENTATION_LAYER_ASSIGNMENT (  '', '', ( #155 ) ) ;
#146 = PRODUCT_DEFINITION ( 'UNKNOWN', '', #319, #277 ) ;
#147 = DIRECTION ( 'NONE',  ( 1.000000000000000000, 0.0000000000000000000, 0.0000000000000000000 ) ) ;
#148 = CIRCLE ( 'NONE', #375, 0.4724409448818898100 ) ;
#149 = DIMENSIONAL_EXPONENTS ( 1.000000000000000000, 0.0000000000000000000, 0.0000000000000000000, 0.0000000000000000000, 0.0000000000000000000, 0.0000000000000000000, 0.0000000000000000000 ) ;
#150 = ORIENTED_EDGE ( 'NONE', *, *, #316, .T. ) ;
#151 = VERTEX_POINT ( 'NONE', #29 ) ;
#152 = DIRECTION ( 'NONE',  ( -0.0000000000000000000, -0.0000000000000000000, -1.000000000000000000 ) ) ;
#153 = DIRECTION ( 'NONE',  ( -1.000000000000000000, 0.0000000000000000000, 0.0000000000000000000 ) ) ;
#154 = CIRCLE ( 'NONE', #71, 0.4527559055118110500 ) ;
#155 = STYLED_ITEM ( 'NONE', ( #376 ), #224 ) ;
#156 = DIRECTION ( 'NONE',  ( -0.0000000000000000000, -0.0000000000000000000, -1.000000000000000000 ) ) ;
#157 = CARTESIAN_POINT ( 'NONE',  ( 0.4921259842519685200, 0.0000000000000000000, 0.03149606299212599800 ) ) ;
#158 = DIRECTION ( 'NONE',  ( -0.0000000000000000000, -0.0000000000000000000, -1.000000000000000000 ) ) ;
#159 = VECTOR ( 'NONE', #219, 39.37007874015748100 ) ;
#160 = ORIENTED_EDGE ( 'NONE', *, *, #190, .F. ) ;
#161 = APPLICATION_PROTOCOL_DEFINITION ( 'draft international standard', 'automotive_design', 1998, #56 ) ;
#162 = DIRECTION ( 'NONE',  ( -1.000000000000000000, 0.0000000000000000000, 0.0000000000000000000 ) ) ;
#163 = STYLED_ITEM ( 'NONE', ( #345 ), #347 ) ;
#164 = DIRECTION ( 'NONE',  ( -0.0000000000000000000, -0.0000000000000000000, -1.000000000000000000 ) ) ;
#165 = CYLINDRICAL_SURFACE ( 'NONE', #86, 0.4527559055118110500 ) ;
#166 = CARTESIAN_POINT ( 'NONE',  ( 0.0000000000000000000, 0.0000000000000000000, 0.2913385826771653900 ) ) ;
#167 = AXIS2_PLACEMENT_3D ( 'NONE', #91, #382, #313 ) ;
#168 = CIRCLE ( 'NONE', #27, 0.4035433070866141800 ) ;
#169 = VERTEX_POINT ( 'NONE', #230 ) ;
#170 = EDGE_LOOP ( 'NONE', ( #284, #359 ) ) ;
#171 = EDGE_LOOP ( 'NONE', ( #142, #264 ) ) ;
#172 = EDGE_CURVE ( 'NONE', #253, #62, #363, .T. ) ;
#173 = AXIS2_PLACEMENT_3D ( 'NONE', #122, #320, #257 ) ;
#174 = CARTESIAN_POINT ( 'NONE',  ( 0.4035433070866141800, 4.941980193409595200E-017, 0.2165354330708661500 ) ) ;
#175 = PRODUCT_CONTEXT ( 'NONE', #118, 'mechanical' ) ;
#176 = CIRCLE ( 'NONE', #307, 0.4527559055118110500 ) ;
#177 = CIRCLE ( 'NONE', #167, 0.4035433070866141800 ) ;
#178 = CARTESIAN_POINT ( 'NONE',  ( 0.4724409448818898100, 5.785732909357575100E-017, 0.1062992125984252000 ) ) ;
#179 = CARTESIAN_POINT ( 'NONE',  ( 0.0000000000000000000, 0.0000000000000000000, 0.2165354330708661500 ) ) ;
#180 = AXIS2_PLACEMENT_3D ( 'NONE', #77, #305, #247 ) ;
#181 = CARTESIAN_POINT ( 'NONE',  ( -0.4921259842519685200, 6.026805113914139900E-017, 0.1062992125984252000 ) ) ;
#182 = COLOUR_RGB ( '',0.8000000000000000400, 0.8000000000000000400, 0.8000000000000000400 ) ;
#183 = EDGE_LOOP ( 'NONE', ( #46, #18 ) ) ;
#184 = CLOSED_SHELL ( 'NONE', ( #317, #208, #235, #355, #92, #30, #57, #388, #127, #261, #94, #322, #289 ) ) ;
#185 = DIRECTION ( 'NONE',  ( 1.000000000000000000, 0.0000000000000000000, 0.0000000000000000000 ) ) ;
#186 = CARTESIAN_POINT ( 'NONE',  ( -0.4035433070866141800, 0.0000000000000000000, 0.2165354330708661500 ) ) ;
#187 = CYLINDRICAL_SURFACE ( 'NONE', #50, 0.4724409448818898100 ) ;
#188 = DIRECTION ( 'NONE',  ( -1.000000000000000000, 0.0000000000000000000, 0.0000000000000000000 ) ) ;
#189 = ORIENTED_EDGE ( 'NONE', *, *, #342, .T. ) ;
#190 = EDGE_CURVE ( 'NONE', #265, #90, #168, .T. ) ;
#191 = AXIS2_PLACEMENT_3D ( 'NONE', #387, #210, #147 ) ;
#192 = DIRECTION ( 'NONE',  ( 1.000000000000000000, 0.0000000000000000000, 0.0000000000000000000 ) ) ;
#193 = AXIS2_PLACEMENT_3D ( 'NONE', #26, #53, #233 ) ;
#194 = FACE_OUTER_BOUND ( 'NONE', #209, .T. ) ;
#195 = DIRECTION ( 'NONE',  ( 0.0000000000000000000, 0.0000000000000000000, 1.000000000000000000 ) ) ;
#196 = AXIS2_PLACEMENT_3D ( 'NONE', #83, #152, #85 ) ;
#197 = CYLINDRICAL_SURFACE ( 'NONE', #191, 0.4921259842519685200 ) ;
#198 = ORIENTED_EDGE ( 'NONE', *, *, #5, .T. ) ;
#199 = CIRCLE ( 'NONE', #260, 0.4035433070866141800 ) ;
#200 =( GEOMETRIC_REPRESENTATION_CONTEXT ( 3 ) GLOBAL_UNCERTAINTY_ASSIGNED_CONTEXT ( ( #329 ) ) GLOBAL_UNIT_ASSIGNED_CONTEXT ( ( #205, #144, #22 ) ) REPRESENTATION_CONTEXT ( 'NONE', 'WORKASPACE' ) );
#201 = ORIENTED_EDGE ( 'NONE', *, *, #251, .F. ) ;
#202 = EDGE_LOOP ( 'NONE', ( #12, #52, #124, #211 ) ) ;
#203 = FACE_OUTER_BOUND ( 'NONE', #377, .T. ) ;
#204 = VERTEX_POINT ( 'NONE', #181 ) ;
#205 =( CONVERSION_BASED_UNIT ( 'INCH', #336 ) LENGTH_UNIT ( ) NAMED_UNIT ( #20 ) );
#206 = CARTESIAN_POINT ( 'NONE',  ( 0.0000000000000000000, 0.0000000000000000000, 0.03149606299212598400 ) ) ;
#207 = CIRCLE ( 'NONE', #69, 0.4724409448818898100 ) ;
#208 = ADVANCED_FACE ( 'NONE', ( #140 ), #197, .T. ) ;
#209 = EDGE_LOOP ( 'NONE', ( #42, #249, #49, #198 ) ) ;
#210 = DIRECTION ( 'NONE',  ( 0.0000000000000000000, 0.0000000000000000000, 1.000000000000000000 ) ) ;
#211 = ORIENTED_EDGE ( 'NONE', *, *, #281, .T. ) ;
#212 = SURFACE_SIDE_STYLE ('',( #143 ) ) ;
#213 = CARTESIAN_POINT ( 'NONE',  ( -0.4035433070866141800, 0.0000000000000000000, 0.2086614173228346600 ) ) ;
#214 = DIMENSIONAL_EXPONENTS ( 1.000000000000000000, 0.0000000000000000000, 0.0000000000000000000, 0.0000000000000000000, 0.0000000000000000000, 0.0000000000000000000, 0.0000000000000000000 ) ;
#215 =( NAMED_UNIT ( * ) SI_UNIT ( $, .STERADIAN. ) SOLID_ANGLE_UNIT ( ) );
#216 = EDGE_CURVE ( 'NONE', #253, #119, #368, .T. ) ;
#217 = LINE ( 'NONE', #297, #159 ) ;
#218 = AXIS2_PLACEMENT_3D ( 'NONE', #236, #156, #272 ) ;
#219 = DIRECTION ( 'NONE',  ( 0.0000000000000000000, 0.0000000000000000000, 1.000000000000000000 ) ) ;
#220 = DIRECTION ( 'NONE',  ( 0.0000000000000000000, 0.0000000000000000000, 1.000000000000000000 ) ) ;
#221 = DIRECTION ( 'NONE',  ( -1.000000000000000000, 0.0000000000000000000, -0.0000000000000000000 ) ) ;
#222 = VERTEX_POINT ( 'NONE', #102 ) ;
#223 = DIRECTION ( 'NONE',  ( -1.000000000000000000, 0.0000000000000000000, 0.0000000000000000000 ) ) ;
#224 = MANIFOLD_SOLID_BREP ( '1', #184 ) ;
#225 = EDGE_CURVE ( 'NONE', #119, #169, #148, .T. ) ;
#226 = EDGE_LOOP ( 'NONE', ( #109, #189 ) ) ;
#227 = EDGE_CURVE ( 'NONE', #309, #137, #379, .T. ) ;
#228 = CARTESIAN_POINT ( 'NONE',  ( -0.4724409448818898100, 0.0000000000000000000, 0.1023622047244094600 ) ) ;
#229 = AXIS2_PLACEMENT_3D ( 'NONE', #58, #386, #262 ) ;
#230 = CARTESIAN_POINT ( 'NONE',  ( -0.4724409448818898100, 0.0000000000000000000, 0.1062992125984252000 ) ) ;
#231 = PLANE ( 'NONE',  #252 ) ;
#232 = LINE ( 'NONE', #43, #16 ) ;
#233 = DIRECTION ( 'NONE',  ( 1.000000000000000000, 0.0000000000000000000, 0.0000000000000000000 ) ) ;
#234 = ORIENTED_EDGE ( 'NONE', *, *, #242, .T. ) ;
#235 = ADVANCED_FACE ( 'NONE', ( #331 ), #187, .T. ) ;
#236 = CARTESIAN_POINT ( 'NONE',  ( 0.0000000000000000000, 0.0000000000000000000, 0.1062992125984252000 ) ) ;
#237 = VERTEX_POINT ( 'NONE', #157 ) ;
#238 = EDGE_LOOP ( 'NONE', ( #160, #339 ) ) ;
#239 = CARTESIAN_POINT ( 'NONE',  ( 0.4724409448818898100, 5.785732909357575100E-017, 0.1023622047244094600 ) ) ;
#240 = SURFACE_STYLE_USAGE ( .BOTH. , #100 ) ;
#241 =( LENGTH_UNIT ( ) NAMED_UNIT ( * ) SI_UNIT ( $, .METRE. ) );
#242 = EDGE_CURVE ( 'NONE', #256, #204, #217, .T. ) ;
#243 = LINE ( 'NONE', #278, #290 ) ;
#244 = VECTOR ( 'NONE', #288, 39.37007874015748100 ) ;
#245 = DIRECTION ( 'NONE',  ( -0.0000000000000000000, -0.0000000000000000000, -1.000000000000000000 ) ) ;
#246 =( LENGTH_UNIT ( ) NAMED_UNIT ( * ) SI_UNIT ( $, .METRE. ) );
#247 = DIRECTION ( 'NONE',  ( 1.000000000000000000, 0.0000000000000000000, 0.0000000000000000000 ) ) ;
#248 = VERTEX_POINT ( 'NONE', #361 ) ;
#249 = ORIENTED_EDGE ( 'NONE', *, *, #327, .F. ) ;
#250 = CARTESIAN_POINT ( 'NONE',  ( 0.0000000000000000000, 0.0000000000000000000, 0.2086614173228346600 ) ) ;
#251 = EDGE_CURVE ( 'NONE', #204, #151, #25, .T. ) ;
#252 = AXIS2_PLACEMENT_3D ( 'NONE', #360, #117, #120 ) ;
#253 = VERTEX_POINT ( 'NONE', #333 ) ;
#254 = ORIENTED_EDGE ( 'NONE', *, *, #342, .F. ) ;
#255 = EDGE_LOOP ( 'NONE', ( #254, #38, #275, #73 ) ) ;
#256 = VERTEX_POINT ( 'NONE', #268 ) ;
#257 = DIRECTION ( 'NONE',  ( -1.000000000000000000, 0.0000000000000000000, 0.0000000000000000000 ) ) ;
#258 = EDGE_CURVE ( 'NONE', #256, #237, #282, .T. ) ;
#259 = PLANE ( 'NONE',  #116 ) ;
#260 = AXIS2_PLACEMENT_3D ( 'NONE', #335, #78, #162 ) ;
#261 = ADVANCED_FACE ( 'NONE', ( #59 ), #280, .T. ) ;
#262 = DIRECTION ( 'NONE',  ( 1.000000000000000000, 0.0000000000000000000, 0.0000000000000000000 ) ) ;
#263 = CARTESIAN_POINT ( 'NONE',  ( 0.0000000000000000000, 0.0000000000000000000, 0.2165354330708661500 ) ) ;
#264 = ORIENTED_EDGE ( 'NONE', *, *, #23, .T. ) ;
#265 = VERTEX_POINT ( 'NONE', #186 ) ;
#266 = DIRECTION ( 'NONE',  ( -0.0000000000000000000, -0.0000000000000000000, -1.000000000000000000 ) ) ;
#267 = CARTESIAN_POINT ( 'NONE',  ( 0.0000000000000000000, 0.0000000000000000000, 0.1023622047244094600 ) ) ;
#268 = CARTESIAN_POINT ( 'NONE',  ( -0.4921259842519685200, 6.026805113914139900E-017, 0.03149606299212599800 ) ) ;
#269 = EDGE_CURVE ( 'NONE', #346, #137, #176, .T. ) ;
#270 = DIRECTION ( 'NONE',  ( -0.0000000000000000000, -0.0000000000000000000, -1.000000000000000000 ) ) ;
#271 = CIRCLE ( 'NONE', #196, 0.4724409448818898100 ) ;
#272 = DIRECTION ( 'NONE',  ( 1.000000000000000000, 0.0000000000000000000, 0.0000000000000000000 ) ) ;
#273 =( CONVERSION_BASED_UNIT ( 'INCH', #389 ) LENGTH_UNIT ( ) NAMED_UNIT ( #214 ) );
#274 = CYLINDRICAL_SURFACE ( 'NONE', #106, 0.4035433070866141800 ) ;
#275 = ORIENTED_EDGE ( 'NONE', *, *, #269, .T. ) ;
#276 = ORIENTED_EDGE ( 'NONE', *, *, #84, .T. ) ;
#277 = PRODUCT_DEFINITION_CONTEXT ( 'detailed design', #56, 'design' ) ;
#278 = CARTESIAN_POINT ( 'NONE',  ( 0.4035433070866141800, 4.941980193409595200E-017, 0.2086614173228346600 ) ) ;
#279 = DIRECTION ( 'NONE',  ( 0.0000000000000000000, 0.0000000000000000000, -1.000000000000000000 ) ) ;
#280 = CYLINDRICAL_SURFACE ( 'NONE', #353, 0.4724409448818898100 ) ;
#281 = EDGE_CURVE ( 'NONE', #151, #204, #384, .T. ) ;
#282 = CIRCLE ( 'NONE', #328, 0.4921259842519685200 ) ;
#283 = VERTEX_POINT ( 'NONE', #213 ) ;
#284 = ORIENTED_EDGE ( 'NONE', *, *, #316, .F. ) ;
#285 = EDGE_CURVE ( 'NONE', #237, #151, #299, .T. ) ;
#286 = SURFACE_STYLE_USAGE ( .BOTH. , #212 ) ;
#287 = MECHANICAL_DESIGN_GEOMETRIC_PRESENTATION_REPRESENTATION (  '', ( #155 ), #362 ) ;
#288 = DIRECTION ( 'NONE',  ( -0.0000000000000000000, -0.0000000000000000000, -1.000000000000000000 ) ) ;
#289 = ADVANCED_FACE ( 'NONE', ( #72 ), #372, .F. ) ;
#290 = VECTOR ( 'NONE', #303, 39.37007874015748100 ) ;
#291 = ORIENTED_EDGE ( 'NONE', *, *, #298, .T. ) ;
#292 = CARTESIAN_POINT ( 'NONE',  ( 0.0000000000000000000, 0.0000000000000000000, 0.1062992125984252000 ) ) ;
#293 = CARTESIAN_POINT ( 'NONE',  ( 0.0000000000000000000, 0.0000000000000000000, 0.1062992125984252000 ) ) ;
#294 = CARTESIAN_POINT ( 'NONE',  ( 0.0000000000000000000, 0.0000000000000000000, 0.03149606299212598400 ) ) ;
#295 = CYLINDRICAL_SURFACE ( 'NONE', #301, 0.4035433070866141800 ) ;
#296 = FILL_AREA_STYLE ('',( #133 ) ) ;
#297 = CARTESIAN_POINT ( 'NONE',  ( -0.4921259842519685200, 6.026805113914139900E-017, 0.2913385826771653900 ) ) ;
#298 = EDGE_CURVE ( 'NONE', #90, #222, #243, .T. ) ;
#299 = LINE ( 'NONE', #365, #308 ) ;
#300 = CARTESIAN_POINT ( 'NONE',  ( 0.4527559055118110500, 0.0000000000000000000, 0.0000000000000000000 ) ) ;
#301 = AXIS2_PLACEMENT_3D ( 'NONE', #13, #245, #223 ) ;
#302 = ORIENTED_EDGE ( 'NONE', *, *, #47, .T. ) ;
#303 = DIRECTION ( 'NONE',  ( -0.0000000000000000000, -0.0000000000000000000, -1.000000000000000000 ) ) ;
#304 = SHAPE_DEFINITION_REPRESENTATION ( #21, #347 ) ;
#305 = DIRECTION ( 'NONE',  ( 0.0000000000000000000, 0.0000000000000000000, 1.000000000000000000 ) ) ;
#306 = EDGE_CURVE ( 'NONE', #265, #283, #232, .T. ) ;
#307 = AXIS2_PLACEMENT_3D ( 'NONE', #364, #70, #192 ) ;
#308 = VECTOR ( 'NONE', #195, 39.37007874015748100 ) ;
#309 = VERTEX_POINT ( 'NONE', #300 ) ;
#310 = ORIENTED_EDGE ( 'NONE', *, *, #298, .F. ) ;
#311 = ORIENTED_EDGE ( 'NONE', *, *, #68, .F. ) ;
#312 = EDGE_LOOP ( 'NONE', ( #276, #381, #33, #311 ) ) ;
#313 = DIRECTION ( 'NONE',  ( -1.000000000000000000, 0.0000000000000000000, 0.0000000000000000000 ) ) ;
#314 = PLANE ( 'NONE',  #14 ) ;
#315 = ORIENTED_EDGE ( 'NONE', *, *, #258, .F. ) ;
#316 = EDGE_CURVE ( 'NONE', #169, #119, #207, .T. ) ;
#317 = ADVANCED_FACE ( 'NONE', ( #101 ), #88, .T. ) ;
#318 = CARTESIAN_POINT ( 'NONE',  ( -0.4724409448818898100, 0.0000000000000000000, 0.2165354330708661500 ) ) ;
#319 = PRODUCT_DEFINITION_FORMATION_WITH_SPECIFIED_SOURCE ( 'ANY', '', #36, .NOT_KNOWN. ) ;
#320 = DIRECTION ( 'NONE',  ( 0.0000000000000000000, 0.0000000000000000000, 1.000000000000000000 ) ) ;
#321 = DIRECTION ( 'NONE',  ( 1.000000000000000000, 0.0000000000000000000, 0.0000000000000000000 ) ) ;
#322 = ADVANCED_FACE ( 'NONE', ( #135 ), #274, .F. ) ;
#323 = EDGE_LOOP ( 'NONE', ( #315, #234, #108, #113 ) ) ;
#324 = CARTESIAN_POINT ( 'NONE',  ( 0.0000000000000000000, 0.0000000000000000000, 0.1023622047244094600 ) ) ;
#325 = ORIENTED_EDGE ( 'NONE', *, *, #68, .T. ) ;
#326 = CARTESIAN_POINT ( 'NONE',  ( 0.0000000000000000000, 0.0000000000000000000, 0.02755905511811023600 ) ) ;
#327 = EDGE_CURVE ( 'NONE', #309, #248, #357, .T. ) ;
#328 = AXIS2_PLACEMENT_3D ( 'NONE', #4, #3, #67 ) ;
#329 = UNCERTAINTY_MEASURE_WITH_UNIT (LENGTH_MEASURE( 1.000000000000000100E-005 ), #205, 'distance_accuracy_value', 'NONE');
#330 = DIRECTION ( 'NONE',  ( 0.0000000000000000000, 0.0000000000000000000, 1.000000000000000000 ) ) ;
#331 = FACE_OUTER_BOUND ( 'NONE', #312, .T. ) ;
#332 = ORIENTED_EDGE ( 'NONE', *, *, #306, .F. ) ;
#333 = CARTESIAN_POINT ( 'NONE',  ( 0.4724409448818898100, 5.785732909357575100E-017, 0.2165354330708661500 ) ) ;
#334 = CARTESIAN_POINT ( 'NONE',  ( 0.0000000000000000000, 0.0000000000000000000, 0.2086614173228346600 ) ) ;
#335 = CARTESIAN_POINT ( 'NONE',  ( 0.0000000000000000000, 0.0000000000000000000, 0.2086614173228346600 ) ) ;
#336 = LENGTH_MEASURE_WITH_UNIT ( LENGTH_MEASURE( 0.02539999999999999900 ), #241 );
#337 = DIRECTION ( 'NONE',  ( -1.000000000000000000, 0.0000000000000000000, 0.0000000000000000000 ) ) ;
#338 = FACE_OUTER_BOUND ( 'NONE', #9, .T. ) ;
#339 = ORIENTED_EDGE ( 'NONE', *, *, #47, .F. ) ;
#340 = DIRECTION ( 'NONE',  ( 0.0000000000000000000, 0.0000000000000000000, 1.000000000000000000 ) ) ;
#341 = LINE ( 'NONE', #228, #244 ) ;
#342 = EDGE_CURVE ( 'NONE', #248, #309, #154, .T. ) ;
#343 = PRODUCT_RELATED_PRODUCT_CATEGORY ( 'part', '', ( #36 ) ) ;
#344 = FILL_AREA_STYLE_COLOUR ( '', #182 ) ;
#345 = PRESENTATION_STYLE_ASSIGNMENT (( #286 ) ) ;
#346 = VERTEX_POINT ( 'NONE', #373 ) ;
#347 = ADVANCED_BREP_SHAPE_REPRESENTATION ( 'RL-102-1', ( #224, #193 ), #40 ) ;
#348 = EDGE_CURVE ( 'NONE', #248, #346, #81, .T. ) ;
#349 = LENGTH_MEASURE_WITH_UNIT ( LENGTH_MEASURE( 0.02539999999999999900 ), #66 );
#350 = EDGE_LOOP ( 'NONE', ( #358, #378, #325, #150 ) ) ;
#351 = DIRECTION ( 'NONE',  ( 0.0000000000000000000, 0.0000000000000000000, 1.000000000000000000 ) ) ;
#352 = APPLICATION_PROTOCOL_DEFINITION ( 'draft international standard', 'automotive_design', 1998, #118 ) ;
#353 = AXIS2_PLACEMENT_3D ( 'NONE', #267, #158, #97 ) ;
#354 = DIRECTION ( 'NONE',  ( 0.0000000000000000000, 0.0000000000000000000, -1.000000000000000000 ) ) ;
#355 = ADVANCED_FACE ( 'NONE', ( #123 ), #295, .F. ) ;
#356 = DIRECTION ( 'NONE',  ( -1.000000000000000000, 0.0000000000000000000, -0.0000000000000000000 ) ) ;
#357 = CIRCLE ( 'NONE', #87, 0.4527559055118110500 ) ;
#358 = ORIENTED_EDGE ( 'NONE', *, *, #216, .F. ) ;
#359 = ORIENTED_EDGE ( 'NONE', *, *, #225, .F. ) ;
#360 = CARTESIAN_POINT ( 'NONE',  ( 0.0000000000000000000, 0.0000000000000000000, 0.0000000000000000000 ) ) ;
#361 = CARTESIAN_POINT ( 'NONE',  ( -0.4527559055118110500, 5.544660704801008400E-017, 0.0000000000000000000 ) ) ;
#362 =( GEOMETRIC_REPRESENTATION_CONTEXT ( 3 ) GLOBAL_UNCERTAINTY_ASSIGNED_CONTEXT ( ( #138 ) ) GLOBAL_UNIT_ASSIGNED_CONTEXT ( ( #129, #64, #215 ) ) REPRESENTATION_CONTEXT ( 'NONE', 'WORKASPACE' ) );
#363 = CIRCLE ( 'NONE', #80, 0.4724409448818898100 ) ;
#364 = CARTESIAN_POINT ( 'NONE',  ( 0.0000000000000000000, 0.0000000000000000000, 0.03149606299212598400 ) ) ;
#365 = CARTESIAN_POINT ( 'NONE',  ( 0.4921259842519685200, 0.0000000000000000000, 0.2913385826771653900 ) ) ;
#366 = EDGE_CURVE ( 'NONE', #283, #222, #199, .T. ) ;
#367 = AXIS2_PLACEMENT_3D ( 'NONE', #166, #220, #370 ) ;
#368 = LINE ( 'NONE', #239, #7 ) ;
#369 = EDGE_LOOP ( 'NONE', ( #132, #82 ) ) ;
#370 = DIRECTION ( 'NONE',  ( 1.000000000000000000, 0.0000000000000000000, 0.0000000000000000000 ) ) ;
#371 = CARTESIAN_POINT ( 'NONE',  ( 0.0000000000000000000, 0.0000000000000000000, 0.1062992125984252000 ) ) ;
#372 = PLANE ( 'NONE',  #380 ) ;
#373 = CARTESIAN_POINT ( 'NONE',  ( -0.4527559055118110500, 5.544660704801008400E-017, 0.03149606299212598400 ) ) ;
#374 = FACE_BOUND ( 'NONE', #170, .T. ) ;
#375 = AXIS2_PLACEMENT_3D ( 'NONE', #99, #130, #37 ) ;
#376 = PRESENTATION_STYLE_ASSIGNMENT (( #240 ) ) ;
#377 = EDGE_LOOP ( 'NONE', ( #19, #201 ) ) ;
#378 = ORIENTED_EDGE ( 'NONE', *, *, #172, .T. ) ;
#379 = LINE ( 'NONE', #35, #112 ) ;
#380 = AXIS2_PLACEMENT_3D ( 'NONE', #334, #279, #221 ) ;
#381 = ORIENTED_EDGE ( 'NONE', *, *, #216, .T. ) ;
#382 = DIRECTION ( 'NONE',  ( 0.0000000000000000000, 0.0000000000000000000, 1.000000000000000000 ) ) ;
#383 = DIRECTION ( 'NONE',  ( -1.000000000000000000, 0.0000000000000000000, -0.0000000000000000000 ) ) ;
#384 = CIRCLE ( 'NONE', #6, 0.4921259842519685200 ) ;
#385 = FACE_BOUND ( 'NONE', #238, .T. ) ;
#386 = DIRECTION ( 'NONE',  ( -0.0000000000000000000, -0.0000000000000000000, -1.000000000000000000 ) ) ;
#387 = CARTESIAN_POINT ( 'NONE',  ( 0.0000000000000000000, 0.0000000000000000000, 0.2913385826771653900 ) ) ;
#388 = ADVANCED_FACE ( 'NONE', ( #48 ), #65, .T. ) ;
#389 = LENGTH_MEASURE_WITH_UNIT ( LENGTH_MEASURE( 0.02539999999999999900 ), #246 );
ENDSEC;
END-ISO-10303-21;
