ISO-10303-21;
HEADER;
FILE_DESCRIPTION (( 'STEP AP214' ),
    '1' );
FILE_NAME ('RL-102.step',
    '2018-04-12T20:56:26',
    ( '' ),
    ( '' ),
    'SwSTEP 2.0',
    'SolidWorks 2017',
    '' );
FILE_SCHEMA (( 'AUTOMOTIVE_DESIGN' ));
ENDSEC;

DATA;
#1 = LINE ( 'NONE', #96, #346 ) ;
#2 = ORIENTED_EDGE ( 'NONE', *, *, #367, .F. ) ;
#3 = EDGE_CURVE ( 'NONE', #187, #68, #77, .T. ) ;
#4 = UNCERTAINTY_MEASURE_WITH_UNIT (LENGTH_MEASURE( 1.000000000000000100E-005 ), #377, 'distance_accuracy_value', 'NONE');
#5 = CARTESIAN_POINT ( 'NONE',  ( 0.0000000000000000000, 0.0000000000000000000, 0.02755905511811023600 ) ) ;
#6 = PRODUCT_DEFINITION_FORMATION_WITH_SPECIFIED_SOURCE ( 'ANY', '', #229, .NOT_KNOWN. ) ;
#7 = VERTEX_POINT ( 'NONE', #55 ) ;
#8 = DIRECTION ( 'NONE',  ( 0.0000000000000000000, 0.0000000000000000000, 1.000000000000000000 ) ) ;
#9 = MECHANICAL_DESIGN_GEOMETRIC_PRESENTATION_REPRESENTATION (  '', ( #313 ), #277 ) ;
#10 = DIRECTION ( 'NONE',  ( -0.0000000000000000000, -0.0000000000000000000, -1.000000000000000000 ) ) ;
#11 = CIRCLE ( 'NONE', #84, 0.4724409448818898100 ) ;
#12 = ORIENTED_EDGE ( 'NONE', *, *, #317, .T. ) ;
#13 = DIRECTION ( 'NONE',  ( -0.0000000000000000000, -0.0000000000000000000, -1.000000000000000000 ) ) ;
#14 = FILL_AREA_STYLE_COLOUR ( '', #61 ) ;
#15 = DIRECTION ( 'NONE',  ( -0.0000000000000000000, -0.0000000000000000000, -1.000000000000000000 ) ) ;
#16 = ORIENTED_EDGE ( 'NONE', *, *, #76, .T. ) ;
#17 = AXIS2_PLACEMENT_3D ( 'NONE', #356, #207, #322 ) ;
#18 = ADVANCED_FACE ( 'NONE', ( #154, #389 ), #114, .F. ) ;
#19 = FILL_AREA_STYLE ('',( #14 ) ) ;
#20 = CARTESIAN_POINT ( 'NONE',  ( 0.0000000000000000000, 0.0000000000000000000, 0.03149606299212598400 ) ) ;
#21 = CYLINDRICAL_SURFACE ( 'NONE', #218, 0.4527559055118110500 ) ;
#22 = ORIENTED_EDGE ( 'NONE', *, *, #25, .T. ) ;
#23 = CARTESIAN_POINT ( 'NONE',  ( 0.4035433070866141800, 4.941980193409595200E-017, 0.2086614173228346600 ) ) ;
#24 = CARTESIAN_POINT ( 'NONE',  ( 0.0000000000000000000, 0.0000000000000000000, 0.2165354330708661500 ) ) ;
#25 = EDGE_CURVE ( 'NONE', #175, #132, #11, .T. ) ;
#26 = DIRECTION ( 'NONE',  ( 0.0000000000000000000, 0.0000000000000000000, 1.000000000000000000 ) ) ;
#27 = CIRCLE ( 'NONE', #128, 0.4527559055118110500 ) ;
#28 = ORIENTED_EDGE ( 'NONE', *, *, #70, .T. ) ;
#29 = DIRECTION ( 'NONE',  ( 0.0000000000000000000, 0.0000000000000000000, -1.000000000000000000 ) ) ;
#30 = EDGE_CURVE ( 'NONE', #62, #249, #27, .T. ) ;
#31 = CIRCLE ( 'NONE', #135, 0.4035433070866141800 ) ;
#32 = PRODUCT_DEFINITION_CONTEXT ( 'detailed design', #168, 'design' ) ;
#33 = DIRECTION ( 'NONE',  ( 1.000000000000000000, 0.0000000000000000000, 0.0000000000000000000 ) ) ;
#34 = ORIENTED_EDGE ( 'NONE', *, *, #324, .T. ) ;
#35 = CARTESIAN_POINT ( 'NONE',  ( 0.0000000000000000000, 0.0000000000000000000, 0.2086614173228346600 ) ) ;
#36 = AXIS2_PLACEMENT_3D ( 'NONE', #42, #99, #259 ) ;
#37 = DIRECTION ( 'NONE',  ( -1.000000000000000000, 0.0000000000000000000, -0.0000000000000000000 ) ) ;
#38 = DIRECTION ( 'NONE',  ( 1.000000000000000000, 0.0000000000000000000, 0.0000000000000000000 ) ) ;
#39 =( NAMED_UNIT ( * ) SI_UNIT ( $, .STERADIAN. ) SOLID_ANGLE_UNIT ( ) );
#40 = FACE_OUTER_BOUND ( 'NONE', #252, .T. ) ;
#41 = CARTESIAN_POINT ( 'NONE',  ( 0.4035433070866141800, 4.941980193409595200E-017, 0.2086614173228346600 ) ) ;
#42 = CARTESIAN_POINT ( 'NONE',  ( 0.0000000000000000000, 0.0000000000000000000, 0.2086614173228346600 ) ) ;
#43 = EDGE_CURVE ( 'NONE', #227, #7, #359, .T. ) ;
#44 = ORIENTED_EDGE ( 'NONE', *, *, #290, .F. ) ;
#45 = DIRECTION ( 'NONE',  ( 0.0000000000000000000, 0.0000000000000000000, -1.000000000000000000 ) ) ;
#46 =( GEOMETRIC_REPRESENTATION_CONTEXT ( 3 ) GLOBAL_UNCERTAINTY_ASSIGNED_CONTEXT ( ( #4 ) ) GLOBAL_UNIT_ASSIGNED_CONTEXT ( ( #377, #349, #166 ) ) REPRESENTATION_CONTEXT ( 'NONE', 'WORKASPACE' ) );
#47 =( LENGTH_UNIT ( ) NAMED_UNIT ( * ) SI_UNIT ( $, .METRE. ) );
#48 = FACE_OUTER_BOUND ( 'NONE', #232, .T. ) ;
#49 = DIMENSIONAL_EXPONENTS ( 1.000000000000000000, 0.0000000000000000000, 0.0000000000000000000, 0.0000000000000000000, 0.0000000000000000000, 0.0000000000000000000, 0.0000000000000000000 ) ;
#50 = AXIS2_PLACEMENT_3D ( 'NONE', #124, #224, #38 ) ;
#51 = DIRECTION ( 'NONE',  ( -1.000000000000000000, 0.0000000000000000000, -0.0000000000000000000 ) ) ;
#52 = ADVANCED_FACE ( 'NONE', ( #48 ), #202, .T. ) ;
#53 = CARTESIAN_POINT ( 'NONE',  ( 0.4921259842519685200, 0.0000000000000000000, 0.03149606299212599800 ) ) ;
#54 = CARTESIAN_POINT ( 'NONE',  ( 0.4724409448818898100, 5.785732909357575100E-017, 0.1062992125984252000 ) ) ;
#55 = CARTESIAN_POINT ( 'NONE',  ( 0.4724409448818898100, 5.785732909357575100E-017, 0.2165354330708661500 ) ) ;
#56 = CYLINDRICAL_SURFACE ( 'NONE', #17, 0.4921259842519685200 ) ;
#57 = ORIENTED_EDGE ( 'NONE', *, *, #3, .T. ) ;
#58 = DIRECTION ( 'NONE',  ( -0.0000000000000000000, -0.0000000000000000000, -1.000000000000000000 ) ) ;
#59 = CARTESIAN_POINT ( 'NONE',  ( 0.4527559055118110500, 0.0000000000000000000, 0.0000000000000000000 ) ) ;
#60 = EDGE_CURVE ( 'NONE', #188, #121, #242, .T. ) ;
#61 = COLOUR_RGB ( '',0.8000000000000000400, 0.8000000000000000400, 0.8000000000000000400 ) ;
#62 = VERTEX_POINT ( 'NONE', #59 ) ;
#63 = ORIENTED_EDGE ( 'NONE', *, *, #295, .F. ) ;
#64 = AXIS2_PLACEMENT_3D ( 'NONE', #215, #83, #145 ) ;
#65 = DIRECTION ( 'NONE',  ( 0.0000000000000000000, 0.0000000000000000000, 1.000000000000000000 ) ) ;
#66 = DIRECTION ( 'NONE',  ( -1.000000000000000000, 0.0000000000000000000, 0.0000000000000000000 ) ) ;
#67 = PRODUCT_DEFINITION ( 'UNKNOWN', '', #6, #32 ) ;
#68 = VERTEX_POINT ( 'NONE', #112 ) ;
#69 = CARTESIAN_POINT ( 'NONE',  ( -0.4724409448818898100, 0.0000000000000000000, 0.2165354330708661500 ) ) ;
#70 = EDGE_CURVE ( 'NONE', #62, #188, #310, .T. ) ;
#71 = DIRECTION ( 'NONE',  ( -1.000000000000000000, 0.0000000000000000000, 0.0000000000000000000 ) ) ;
#72 = CYLINDRICAL_SURFACE ( 'NONE', #388, 0.4035433070866141800 ) ;
#73 = EDGE_LOOP ( 'NONE', ( #288, #329 ) ) ;
#74 =( LENGTH_UNIT ( ) NAMED_UNIT ( * ) SI_UNIT ( $, .METRE. ) );
#75 = DIRECTION ( 'NONE',  ( 1.000000000000000000, 0.0000000000000000000, 0.0000000000000000000 ) ) ;
#76 = EDGE_CURVE ( 'NONE', #365, #220, #31, .T. ) ;
#77 = CIRCLE ( 'NONE', #64, 0.4921259842519685200 ) ;
#78 = ADVANCED_FACE ( 'NONE', ( #101, #185 ), #266, .F. ) ;
#79 = CARTESIAN_POINT ( 'NONE',  ( 0.0000000000000000000, 0.0000000000000000000, 0.03149606299212599800 ) ) ;
#80 = FACE_OUTER_BOUND ( 'NONE', #343, .T. ) ;
#81 = ORIENTED_EDGE ( 'NONE', *, *, #184, .F. ) ;
#82 = CARTESIAN_POINT ( 'NONE',  ( 0.0000000000000000000, 0.0000000000000000000, 0.2913385826771653900 ) ) ;
#83 = DIRECTION ( 'NONE',  ( -0.0000000000000000000, -0.0000000000000000000, -1.000000000000000000 ) ) ;
#84 = AXIS2_PLACEMENT_3D ( 'NONE', #176, #386, #179 ) ;
#85 = DIRECTION ( 'NONE',  ( -0.0000000000000000000, -0.0000000000000000000, -1.000000000000000000 ) ) ;
#86 = DIRECTION ( 'NONE',  ( -1.000000000000000000, 0.0000000000000000000, 0.0000000000000000000 ) ) ;
#87 = ORIENTED_EDGE ( 'NONE', *, *, #367, .T. ) ;
#88 = LINE ( 'NONE', #211, #210 ) ;
#89 = VERTEX_POINT ( 'NONE', #53 ) ;
#90 = ORIENTED_EDGE ( 'NONE', *, *, #60, .F. ) ;
#91 = EDGE_LOOP ( 'NONE', ( #335, #333 ) ) ;
#92 = EDGE_CURVE ( 'NONE', #89, #321, #265, .T. ) ;
#93 = DIRECTION ( 'NONE',  ( -0.0000000000000000000, -0.0000000000000000000, -1.000000000000000000 ) ) ;
#94 = DIRECTION ( 'NONE',  ( -0.0000000000000000000, -0.0000000000000000000, -1.000000000000000000 ) ) ;
#95 =( LENGTH_UNIT ( ) NAMED_UNIT ( * ) SI_UNIT ( $, .METRE. ) );
#96 = CARTESIAN_POINT ( 'NONE',  ( -0.4527559055118110500, 5.544660704801008400E-017, 0.02755905511811023600 ) ) ;
#97 = VECTOR ( 'NONE', #13, 39.37007874015748100 ) ;
#98 = EDGE_LOOP ( 'NONE', ( #90, #2 ) ) ;
#99 = DIRECTION ( 'NONE',  ( -0.0000000000000000000, -0.0000000000000000000, -1.000000000000000000 ) ) ;
#100 = AXIS2_PLACEMENT_3D ( 'NONE', #373, #163, #192 ) ;
#101 = FACE_OUTER_BOUND ( 'NONE', #91, .T. ) ;
#102 = SURFACE_SIDE_STYLE ('',( #293 ) ) ;
#103 = ORIENTED_EDGE ( 'NONE', *, *, #184, .T. ) ;
#104 = EDGE_LOOP ( 'NONE', ( #44, #302, #12, #22 ) ) ;
#105 = PLANE ( 'NONE',  #146 ) ;
#106 = EDGE_CURVE ( 'NONE', #321, #89, #126, .T. ) ;
#107 = LINE ( 'NONE', #41, #97 ) ;
#108 = ADVANCED_FACE ( 'NONE', ( #342 ), #56, .T. ) ;
#109 = ORIENTED_EDGE ( 'NONE', *, *, #25, .F. ) ;
#110 = DIRECTION ( 'NONE',  ( -1.000000000000000000, 0.0000000000000000000, 0.0000000000000000000 ) ) ;
#111 = DIRECTION ( 'NONE',  ( -0.0000000000000000000, -0.0000000000000000000, -1.000000000000000000 ) ) ;
#112 = CARTESIAN_POINT ( 'NONE',  ( 0.4921259842519685200, 0.0000000000000000000, 0.1062992125984252000 ) ) ;
#113 = CARTESIAN_POINT ( 'NONE',  ( 0.0000000000000000000, 0.0000000000000000000, 0.2165354330708661500 ) ) ;
#114 = PLANE ( 'NONE',  #303 ) ;
#115 = FACE_OUTER_BOUND ( 'NONE', #104, .T. ) ;
#116 = ORIENTED_EDGE ( 'NONE', *, *, #272, .F. ) ;
#117 = CARTESIAN_POINT ( 'NONE',  ( 0.4527559055118110500, 0.0000000000000000000, 0.02755905511811023600 ) ) ;
#118 = EDGE_CURVE ( 'NONE', #321, #187, #88, .T. ) ;
#119 = CIRCLE ( 'NONE', #50, 0.4921259842519685200 ) ;
#120 = VERTEX_POINT ( 'NONE', #23 ) ;
#121 = VERTEX_POINT ( 'NONE', #174 ) ;
#122 = PRESENTATION_LAYER_ASSIGNMENT (  '', '', ( #313 ) ) ;
#123 = ORIENTED_EDGE ( 'NONE', *, *, #250, .F. ) ;
#124 = CARTESIAN_POINT ( 'NONE',  ( 0.0000000000000000000, 0.0000000000000000000, 0.1062992125984252000 ) ) ;
#125 = CARTESIAN_POINT ( 'NONE',  ( -0.4035433070866141800, 0.0000000000000000000, 0.2086614173228346600 ) ) ;
#126 = CIRCLE ( 'NONE', #308, 0.4921259842519685200 ) ;
#127 = CARTESIAN_POINT ( 'NONE',  ( 0.0000000000000000000, 0.0000000000000000000, 0.0000000000000000000 ) ) ;
#128 = AXIS2_PLACEMENT_3D ( 'NONE', #325, #209, #274 ) ;
#129 = CARTESIAN_POINT ( 'NONE',  ( 0.4921259842519685200, 0.0000000000000000000, 0.2913385826771653900 ) ) ;
#130 = CARTESIAN_POINT ( 'NONE',  ( 0.0000000000000000000, 0.0000000000000000000, 0.0000000000000000000 ) ) ;
#131 = LINE ( 'NONE', #233, #275 ) ;
#132 = VERTEX_POINT ( 'NONE', #54 ) ;
#133 = DIRECTION ( 'NONE',  ( -1.000000000000000000, 0.0000000000000000000, -0.0000000000000000000 ) ) ;
#134 = PRODUCT_CONTEXT ( 'NONE', #376, 'mechanical' ) ;
#135 = AXIS2_PLACEMENT_3D ( 'NONE', #113, #382, #240 ) ;
#136 = ADVANCED_FACE ( 'NONE', ( #115 ), #226, .T. ) ;
#137 = VECTOR ( 'NONE', #93, 39.37007874015748100 ) ;
#138 =( NAMED_UNIT ( * ) PLANE_ANGLE_UNIT ( ) SI_UNIT ( $, .RADIAN. ) );
#139 = ADVANCED_FACE ( 'NONE', ( #278, #40 ), #380, .T. ) ;
#140 = DIRECTION ( 'NONE',  ( 0.0000000000000000000, 0.0000000000000000000, 1.000000000000000000 ) ) ;
#141 = DIRECTION ( 'NONE',  ( 1.000000000000000000, 0.0000000000000000000, 0.0000000000000000000 ) ) ;
#142 = CARTESIAN_POINT ( 'NONE',  ( 0.0000000000000000000, 0.0000000000000000000, 0.1062992125984252000 ) ) ;
#143 = PRESENTATION_STYLE_ASSIGNMENT (( #314 ) ) ;
#144 = ORIENTED_EDGE ( 'NONE', *, *, #70, .F. ) ;
#145 = DIRECTION ( 'NONE',  ( 1.000000000000000000, 0.0000000000000000000, 0.0000000000000000000 ) ) ;
#146 = AXIS2_PLACEMENT_3D ( 'NONE', #127, #45, #133 ) ;
#147 = LENGTH_MEASURE_WITH_UNIT ( LENGTH_MEASURE( 0.02539999999999999900 ), #74 );
#148 = ORIENTED_EDGE ( 'NONE', *, *, #327, .T. ) ;
#149 = AXIS2_PLACEMENT_3D ( 'NONE', #387, #219, #33 ) ;
#150 = PRESENTATION_STYLE_ASSIGNMENT (( #234 ) ) ;
#151 = CYLINDRICAL_SURFACE ( 'NONE', #300, 0.4527559055118110500 ) ;
#152 = EDGE_LOOP ( 'NONE', ( #116, #262, #87, #144 ) ) ;
#153 = CARTESIAN_POINT ( 'NONE',  ( -0.4035433070866141800, 0.0000000000000000000, 0.2165354330708661500 ) ) ;
#154 = FACE_OUTER_BOUND ( 'NONE', #305, .T. ) ;
#155 = AXIS2_PLACEMENT_3D ( 'NONE', #79, #268, #384 ) ;
#156 = ORIENTED_EDGE ( 'NONE', *, *, #106, .F. ) ;
#157 = CARTESIAN_POINT ( 'NONE',  ( 0.0000000000000000000, 0.0000000000000000000, 0.02755905511811023600 ) ) ;
#158 = DIRECTION ( 'NONE',  ( -0.0000000000000000000, -0.0000000000000000000, -1.000000000000000000 ) ) ;
#159 = CIRCLE ( 'NONE', #297, 0.4035433070866141800 ) ;
#160 = CIRCLE ( 'NONE', #362, 0.4527559055118110500 ) ;
#161 = DIRECTION ( 'NONE',  ( 1.000000000000000000, 0.0000000000000000000, 0.0000000000000000000 ) ) ;
#162 = ORIENTED_EDGE ( 'NONE', *, *, #221, .F. ) ;
#163 = DIRECTION ( 'NONE',  ( 0.0000000000000000000, 0.0000000000000000000, 1.000000000000000000 ) ) ;
#164 =( CONVERSION_BASED_UNIT ( 'INCH', #363 ) LENGTH_UNIT ( ) NAMED_UNIT ( #49 ) );
#165 = AXIS2_PLACEMENT_3D ( 'NONE', #318, #15, #291 ) ;
#166 =( NAMED_UNIT ( * ) SI_UNIT ( $, .STERADIAN. ) SOLID_ANGLE_UNIT ( ) );
#167 = ORIENTED_EDGE ( 'NONE', *, *, #76, .F. ) ;
#168 = APPLICATION_CONTEXT ( 'automotive_design' ) ;
#169 = ADVANCED_FACE ( 'NONE', ( #270 ), #186, .F. ) ;
#170 = DIRECTION ( 'NONE',  ( 0.0000000000000000000, 0.0000000000000000000, 1.000000000000000000 ) ) ;
#171 = UNCERTAINTY_MEASURE_WITH_UNIT (LENGTH_MEASURE( 1.000000000000000100E-005 ), #164, 'distance_accuracy_value', 'NONE');
#172 =( NAMED_UNIT ( * ) SI_UNIT ( $, .STERADIAN. ) SOLID_ANGLE_UNIT ( ) );
#173 = VECTOR ( 'NONE', #194, 39.37007874015748100 ) ;
#174 = CARTESIAN_POINT ( 'NONE',  ( -0.4527559055118110500, 5.544660704801008400E-017, 0.03149606299212598400 ) ) ;
#175 = VERTEX_POINT ( 'NONE', #334 ) ;
#176 = CARTESIAN_POINT ( 'NONE',  ( 0.0000000000000000000, 0.0000000000000000000, 0.1062992125984252000 ) ) ;
#177 = CARTESIAN_POINT ( 'NONE',  ( 0.0000000000000000000, 0.0000000000000000000, 0.2165354330708661500 ) ) ;
#178 = DIRECTION ( 'NONE',  ( -1.000000000000000000, 0.0000000000000000000, -0.0000000000000000000 ) ) ;
#179 = DIRECTION ( 'NONE',  ( -1.000000000000000000, 0.0000000000000000000, 0.0000000000000000000 ) ) ;
#180 = ORIENTED_EDGE ( 'NONE', *, *, #290, .T. ) ;
#181 = AXIS2_PLACEMENT_3D ( 'NONE', #339, #8, #66 ) ;
#182 = FACE_OUTER_BOUND ( 'NONE', #279, .T. ) ;
#183 = EDGE_LOOP ( 'NONE', ( #156, #212, #57, #261 ) ) ;
#184 = EDGE_CURVE ( 'NONE', #132, #175, #248, .T. ) ;
#185 = FACE_BOUND ( 'NONE', #366, .T. ) ;
#186 = PLANE ( 'NONE',  #371 ) ;
#187 = VERTEX_POINT ( 'NONE', #306 ) ;
#188 = VERTEX_POINT ( 'NONE', #251 ) ;
#189 = DIRECTION ( 'NONE',  ( -1.000000000000000000, 0.0000000000000000000, 0.0000000000000000000 ) ) ;
#190 = VECTOR ( 'NONE', #158, 39.37007874015748100 ) ;
#191 = AXIS2_PLACEMENT_3D ( 'NONE', #20, #294, #269 ) ;
#192 = DIRECTION ( 'NONE',  ( -1.000000000000000000, 0.0000000000000000000, 0.0000000000000000000 ) ) ;
#193 = DIRECTION ( 'NONE',  ( -1.000000000000000000, 0.0000000000000000000, 0.0000000000000000000 ) ) ;
#194 = DIRECTION ( 'NONE',  ( 0.0000000000000000000, 0.0000000000000000000, 1.000000000000000000 ) ) ;
#195 = FACE_OUTER_BOUND ( 'NONE', #152, .T. ) ;
#196 = SURFACE_SIDE_STYLE ('',( #292 ) ) ;
#197 = ORIENTED_EDGE ( 'NONE', *, *, #225, .F. ) ;
#198 = ORIENTED_EDGE ( 'NONE', *, *, #30, .F. ) ;
#199 = APPLICATION_PROTOCOL_DEFINITION ( 'draft international standard', 'automotive_design', 1998, #168 ) ;
#200 = AXIS2_PLACEMENT_3D ( 'NONE', #24, #58, #86 ) ;
#201 = ADVANCED_FACE ( 'NONE', ( #195 ), #21, .T. ) ;
#202 = CYLINDRICAL_SURFACE ( 'NONE', #355, 0.4921259842519685200 ) ;
#203 = DIRECTION ( 'NONE',  ( -1.000000000000000000, 0.0000000000000000000, 0.0000000000000000000 ) ) ;
#204 = DIRECTION ( 'NONE',  ( -0.0000000000000000000, -0.0000000000000000000, -1.000000000000000000 ) ) ;
#205 = ADVANCED_FACE ( 'NONE', ( #80 ), #151, .T. ) ;
#206 = DIRECTION ( 'NONE',  ( 0.0000000000000000000, 0.0000000000000000000, 1.000000000000000000 ) ) ;
#207 = DIRECTION ( 'NONE',  ( 0.0000000000000000000, 0.0000000000000000000, 1.000000000000000000 ) ) ;
#208 = AXIS2_PLACEMENT_3D ( 'NONE', #307, #170, #75 ) ;
#209 = DIRECTION ( 'NONE',  ( -0.0000000000000000000, -0.0000000000000000000, -1.000000000000000000 ) ) ;
#210 = VECTOR ( 'NONE', #140, 39.37007874015748100 ) ;
#211 = CARTESIAN_POINT ( 'NONE',  ( -0.4921259842519685200, 6.026805113914139900E-017, 0.2913385826771653900 ) ) ;
#212 = ORIENTED_EDGE ( 'NONE', *, *, #118, .T. ) ;
#213 = VERTEX_POINT ( 'NONE', #125 ) ;
#214 = AXIS2_PLACEMENT_3D ( 'NONE', #296, #204, #110 ) ;
#215 = CARTESIAN_POINT ( 'NONE',  ( 0.0000000000000000000, 0.0000000000000000000, 0.1062992125984252000 ) ) ;
#216 = FACE_OUTER_BOUND ( 'NONE', #246, .T. ) ;
#217 = ORIENTED_EDGE ( 'NONE', *, *, #250, .T. ) ;
#218 = AXIS2_PLACEMENT_3D ( 'NONE', #157, #65, #337 ) ;
#219 = DIRECTION ( 'NONE',  ( -0.0000000000000000000, -0.0000000000000000000, -1.000000000000000000 ) ) ;
#220 = VERTEX_POINT ( 'NONE', #153 ) ;
#221 = EDGE_CURVE ( 'NONE', #220, #213, #372, .T. ) ;
#222 = DIRECTION ( 'NONE',  ( 0.0000000000000000000, 0.0000000000000000000, -1.000000000000000000 ) ) ;
#223 = MECHANICAL_DESIGN_GEOMETRIC_PRESENTATION_REPRESENTATION (  '', ( #357 ), #46 ) ;
#224 = DIRECTION ( 'NONE',  ( -0.0000000000000000000, -0.0000000000000000000, -1.000000000000000000 ) ) ;
#225 = EDGE_CURVE ( 'NONE', #68, #187, #119, .T. ) ;
#226 = CYLINDRICAL_SURFACE ( 'NONE', #214, 0.4724409448818898100 ) ;
#227 = VERTEX_POINT ( 'NONE', #69 ) ;
#228 = DIRECTION ( 'NONE',  ( 0.0000000000000000000, 0.0000000000000000000, 1.000000000000000000 ) ) ;
#229 = PRODUCT ( 'RL-102', 'RL-102', '', ( #134 ) ) ;
#230 = LINE ( 'NONE', #129, #173 ) ;
#231 = ORIENTED_EDGE ( 'NONE', *, *, #118, .F. ) ;
#232 = EDGE_LOOP ( 'NONE', ( #231, #360, #34, #273 ) ) ;
#233 = CARTESIAN_POINT ( 'NONE',  ( -0.4724409448818898100, 0.0000000000000000000, 0.1023622047244094600 ) ) ;
#234 = SURFACE_STYLE_USAGE ( .BOTH. , #196 ) ;
#235 = PRESENTATION_LAYER_ASSIGNMENT (  '', '', ( #357 ) ) ;
#236 = FILL_AREA_STYLE ('',( #253 ) ) ;
#237 = ORIENTED_EDGE ( 'NONE', *, *, #43, .T. ) ;
#238 = ADVANCED_FACE ( 'NONE', ( #331 ), #353, .T. ) ;
#239 = DIRECTION ( 'NONE',  ( 0.0000000000000000000, 0.0000000000000000000, 1.000000000000000000 ) ) ;
#240 = DIRECTION ( 'NONE',  ( -1.000000000000000000, 0.0000000000000000000, 0.0000000000000000000 ) ) ;
#241 = CARTESIAN_POINT ( 'NONE',  ( 0.0000000000000000000, 0.0000000000000000000, 0.2165354330708661500 ) ) ;
#242 = CIRCLE ( 'NONE', #149, 0.4527559055118110500 ) ;
#243 = ORIENTED_EDGE ( 'NONE', *, *, #247, .T. ) ;
#244 = DIRECTION ( 'NONE',  ( 1.000000000000000000, 0.0000000000000000000, 0.0000000000000000000 ) ) ;
#245 = PRODUCT_RELATED_PRODUCT_CATEGORY ( 'part', '', ( #229 ) ) ;
#246 = EDGE_LOOP ( 'NONE', ( #217, #148, #311, #162 ) ) ;
#247 = EDGE_CURVE ( 'NONE', #213, #120, #299, .T. ) ;
#248 = CIRCLE ( 'NONE', #181, 0.4724409448818898100 ) ;
#249 = VERTEX_POINT ( 'NONE', #256 ) ;
#250 = EDGE_CURVE ( 'NONE', #220, #365, #301, .T. ) ;
#251 = CARTESIAN_POINT ( 'NONE',  ( 0.4527559055118110500, 0.0000000000000000000, 0.03149606299212598400 ) ) ;
#252 = EDGE_LOOP ( 'NONE', ( #374, #385 ) ) ;
#253 = FILL_AREA_STYLE_COLOUR ( '', #341 ) ;
#254 =( GEOMETRIC_REPRESENTATION_CONTEXT ( 3 ) GLOBAL_UNCERTAINTY_ASSIGNED_CONTEXT ( ( #171 ) ) GLOBAL_UNIT_ASSIGNED_CONTEXT ( ( #164, #138, #172 ) ) REPRESENTATION_CONTEXT ( 'NONE', 'WORKASPACE' ) );
#255 = FACE_OUTER_BOUND ( 'NONE', #73, .T. ) ;
#256 = CARTESIAN_POINT ( 'NONE',  ( -0.4527559055118110500, 5.544660704801008400E-017, 0.0000000000000000000 ) ) ;
#257 = EDGE_LOOP ( 'NONE', ( #109, #81 ) ) ;
#258 = CARTESIAN_POINT ( 'NONE',  ( 0.4724409448818898100, 5.785732909357575100E-017, 0.1023622047244094600 ) ) ;
#259 = DIRECTION ( 'NONE',  ( -1.000000000000000000, 0.0000000000000000000, 0.0000000000000000000 ) ) ;
#260 =( CONVERSION_BASED_UNIT ( 'INCH', #287 ) LENGTH_UNIT ( ) NAMED_UNIT ( #354 ) );
#261 = ORIENTED_EDGE ( 'NONE', *, *, #324, .F. ) ;
#262 = ORIENTED_EDGE ( 'NONE', *, *, #295, .T. ) ;
#263 = DIRECTION ( 'NONE',  ( -1.000000000000000000, 0.0000000000000000000, 0.0000000000000000000 ) ) ;
#264 = ADVANCED_FACE ( 'NONE', ( #216 ), #72, .F. ) ;
#265 = CIRCLE ( 'NONE', #155, 0.4921259842519685200 ) ;
#266 = PLANE ( 'NONE',  #350 ) ;
#267 = ORIENTED_EDGE ( 'NONE', *, *, #317, .F. ) ;
#268 = DIRECTION ( 'NONE',  ( -0.0000000000000000000, -0.0000000000000000000, -1.000000000000000000 ) ) ;
#269 = DIRECTION ( 'NONE',  ( -1.000000000000000000, 0.0000000000000000000, -0.0000000000000000000 ) ) ;
#270 = FACE_OUTER_BOUND ( 'NONE', #347, .T. ) ;
#271 = ORIENTED_EDGE ( 'NONE', *, *, #3, .F. ) ;
#272 = EDGE_CURVE ( 'NONE', #249, #62, #160, .T. ) ;
#273 = ORIENTED_EDGE ( 'NONE', *, *, #225, .T. ) ;
#274 = DIRECTION ( 'NONE',  ( 1.000000000000000000, 0.0000000000000000000, 0.0000000000000000000 ) ) ;
#275 = VECTOR ( 'NONE', #285, 39.37007874015748100 ) ;
#276 = AXIS2_PLACEMENT_3D ( 'NONE', #281, #94, #189 ) ;
#277 =( GEOMETRIC_REPRESENTATION_CONTEXT ( 3 ) GLOBAL_UNCERTAINTY_ASSIGNED_CONTEXT ( ( #336 ) ) GLOBAL_UNIT_ASSIGNED_CONTEXT ( ( #260, #351, #39 ) ) REPRESENTATION_CONTEXT ( 'NONE', 'WORKASPACE' ) );
#278 = FACE_BOUND ( 'NONE', #98, .T. ) ;
#279 = EDGE_LOOP ( 'NONE', ( #348, #16, #378, #316 ) ) ;
#280 = AXIS2_PLACEMENT_3D ( 'NONE', #332, #309, #193 ) ;
#281 = CARTESIAN_POINT ( 'NONE',  ( 0.0000000000000000000, 0.0000000000000000000, 0.1023622047244094600 ) ) ;
#282 = CARTESIAN_POINT ( 'NONE',  ( 0.0000000000000000000, 0.0000000000000000000, 0.2086614173228346600 ) ) ;
#283 = SHAPE_DEFINITION_REPRESENTATION ( #361, #326 ) ;
#284 = CYLINDRICAL_SURFACE ( 'NONE', #36, 0.4035433070866141800 ) ;
#285 = DIRECTION ( 'NONE',  ( -0.0000000000000000000, -0.0000000000000000000, -1.000000000000000000 ) ) ;
#286 = DIRECTION ( 'NONE',  ( -0.0000000000000000000, -0.0000000000000000000, -1.000000000000000000 ) ) ;
#287 = LENGTH_MEASURE_WITH_UNIT ( LENGTH_MEASURE( 0.02539999999999999900 ), #95 );
#288 = ORIENTED_EDGE ( 'NONE', *, *, #30, .T. ) ;
#289 = CLOSED_SHELL ( 'NONE', ( #201, #108, #238, #264, #352, #205, #139, #52, #18, #136, #78, #319, #169 ) ) ;
#290 = EDGE_CURVE ( 'NONE', #7, #132, #383, .T. ) ;
#291 = DIRECTION ( 'NONE',  ( 1.000000000000000000, 0.0000000000000000000, 0.0000000000000000000 ) ) ;
#292 = SURFACE_STYLE_FILL_AREA ( #236 ) ;
#293 = SURFACE_STYLE_FILL_AREA ( #19 ) ;
#294 = DIRECTION ( 'NONE',  ( 0.0000000000000000000, 0.0000000000000000000, -1.000000000000000000 ) ) ;
#295 = EDGE_CURVE ( 'NONE', #249, #121, #1, .T. ) ;
#296 = CARTESIAN_POINT ( 'NONE',  ( 0.0000000000000000000, 0.0000000000000000000, 0.1023622047244094600 ) ) ;
#297 = AXIS2_PLACEMENT_3D ( 'NONE', #282, #239, #263 ) ;
#298 = EDGE_LOOP ( 'NONE', ( #237, #180, #103, #267 ) ) ;
#299 = CIRCLE ( 'NONE', #280, 0.4035433070866141800 ) ;
#300 = AXIS2_PLACEMENT_3D ( 'NONE', #5, #370, #304 ) ;
#301 = CIRCLE ( 'NONE', #100, 0.4035433070866141800 ) ;
#302 = ORIENTED_EDGE ( 'NONE', *, *, #338, .T. ) ;
#303 = AXIS2_PLACEMENT_3D ( 'NONE', #142, #29, #178 ) ;
#304 = DIRECTION ( 'NONE',  ( 1.000000000000000000, 0.0000000000000000000, 0.0000000000000000000 ) ) ;
#305 = EDGE_LOOP ( 'NONE', ( #197, #271 ) ) ;
#306 = CARTESIAN_POINT ( 'NONE',  ( -0.4921259842519685200, 6.026805113914139900E-017, 0.1062992125984252000 ) ) ;
#307 = CARTESIAN_POINT ( 'NONE',  ( 0.0000000000000000000, 0.0000000000000000000, 0.0000000000000000000 ) ) ;
#308 = AXIS2_PLACEMENT_3D ( 'NONE', #358, #111, #141 ) ;
#309 = DIRECTION ( 'NONE',  ( 0.0000000000000000000, 0.0000000000000000000, 1.000000000000000000 ) ) ;
#310 = LINE ( 'NONE', #117, #369 ) ;
#311 = ORIENTED_EDGE ( 'NONE', *, *, #247, .F. ) ;
#312 = CARTESIAN_POINT ( 'NONE',  ( -0.4921259842519685200, 6.026805113914139900E-017, 0.03149606299212599800 ) ) ;
#313 = STYLED_ITEM ( 'NONE', ( #143 ), #344 ) ;
#314 = SURFACE_STYLE_USAGE ( .BOTH. , #102 ) ;
#315 = APPLICATION_PROTOCOL_DEFINITION ( 'draft international standard', 'automotive_design', 1998, #376 ) ;
#316 = ORIENTED_EDGE ( 'NONE', *, *, #375, .F. ) ;
#317 = EDGE_CURVE ( 'NONE', #227, #175, #131, .T. ) ;
#318 = CARTESIAN_POINT ( 'NONE',  ( 0.0000000000000000000, 0.0000000000000000000, 0.03149606299212598400 ) ) ;
#319 = ADVANCED_FACE ( 'NONE', ( #182 ), #284, .F. ) ;
#320 = CIRCLE ( 'NONE', #165, 0.4527559055118110500 ) ;
#321 = VERTEX_POINT ( 'NONE', #312 ) ;
#322 = DIRECTION ( 'NONE',  ( 1.000000000000000000, 0.0000000000000000000, 0.0000000000000000000 ) ) ;
#323 = DIRECTION ( 'NONE',  ( 0.0000000000000000000, 0.0000000000000000000, -1.000000000000000000 ) ) ;
#324 = EDGE_CURVE ( 'NONE', #89, #68, #230, .T. ) ;
#325 = CARTESIAN_POINT ( 'NONE',  ( 0.0000000000000000000, 0.0000000000000000000, 0.0000000000000000000 ) ) ;
#326 = ADVANCED_BREP_SHAPE_REPRESENTATION ( 'RL-102', ( #344, #208 ), #254 ) ;
#327 = EDGE_CURVE ( 'NONE', #365, #120, #107, .T. ) ;
#328 = ORIENTED_EDGE ( 'NONE', *, *, #60, .T. ) ;
#329 = ORIENTED_EDGE ( 'NONE', *, *, #272, .T. ) ;
#330 = ORIENTED_EDGE ( 'NONE', *, *, #375, .T. ) ;
#331 = FACE_OUTER_BOUND ( 'NONE', #298, .T. ) ;
#332 = CARTESIAN_POINT ( 'NONE',  ( 0.0000000000000000000, 0.0000000000000000000, 0.2086614173228346600 ) ) ;
#333 = ORIENTED_EDGE ( 'NONE', *, *, #338, .F. ) ;
#334 = CARTESIAN_POINT ( 'NONE',  ( -0.4724409448818898100, 0.0000000000000000000, 0.1062992125984252000 ) ) ;
#335 = ORIENTED_EDGE ( 'NONE', *, *, #43, .F. ) ;
#336 = UNCERTAINTY_MEASURE_WITH_UNIT (LENGTH_MEASURE( 1.000000000000000100E-005 ), #260, 'distance_accuracy_value', 'NONE');
#337 = DIRECTION ( 'NONE',  ( 1.000000000000000000, 0.0000000000000000000, 0.0000000000000000000 ) ) ;
#338 = EDGE_CURVE ( 'NONE', #7, #227, #364, .T. ) ;
#339 = CARTESIAN_POINT ( 'NONE',  ( 0.0000000000000000000, 0.0000000000000000000, 0.1062992125984252000 ) ) ;
#340 = CARTESIAN_POINT ( 'NONE',  ( 0.4035433070866141800, 4.941980193409595200E-017, 0.2165354330708661500 ) ) ;
#341 = COLOUR_RGB ( '',0.8000000000000000400, 0.8000000000000000400, 0.8000000000000000400 ) ;
#342 = FACE_OUTER_BOUND ( 'NONE', #183, .T. ) ;
#343 = EDGE_LOOP ( 'NONE', ( #63, #198, #28, #328 ) ) ;
#344 = MANIFOLD_SOLID_BREP ( '1', #289 ) ;
#345 = CARTESIAN_POINT ( 'NONE',  ( 0.0000000000000000000, 0.0000000000000000000, 0.2086614173228346600 ) ) ;
#346 = VECTOR ( 'NONE', #228, 39.37007874015748100 ) ;
#347 = EDGE_LOOP ( 'NONE', ( #243, #330 ) ) ;
#348 = ORIENTED_EDGE ( 'NONE', *, *, #327, .F. ) ;
#349 =( NAMED_UNIT ( * ) PLANE_ANGLE_UNIT ( ) SI_UNIT ( $, .RADIAN. ) );
#350 = AXIS2_PLACEMENT_3D ( 'NONE', #241, #323, #51 ) ;
#351 =( NAMED_UNIT ( * ) PLANE_ANGLE_UNIT ( ) SI_UNIT ( $, .RADIAN. ) );
#352 = ADVANCED_FACE ( 'NONE', ( #255 ), #105, .T. ) ;
#353 = CYLINDRICAL_SURFACE ( 'NONE', #276, 0.4724409448818898100 ) ;
#354 = DIMENSIONAL_EXPONENTS ( 1.000000000000000000, 0.0000000000000000000, 0.0000000000000000000, 0.0000000000000000000, 0.0000000000000000000, 0.0000000000000000000, 0.0000000000000000000 ) ;
#355 = AXIS2_PLACEMENT_3D ( 'NONE', #82, #26, #244 ) ;
#356 = CARTESIAN_POINT ( 'NONE',  ( 0.0000000000000000000, 0.0000000000000000000, 0.2913385826771653900 ) ) ;
#357 = STYLED_ITEM ( 'NONE', ( #150 ), #326 ) ;
#358 = CARTESIAN_POINT ( 'NONE',  ( 0.0000000000000000000, 0.0000000000000000000, 0.03149606299212599800 ) ) ;
#359 = CIRCLE ( 'NONE', #200, 0.4724409448818898100 ) ;
#360 = ORIENTED_EDGE ( 'NONE', *, *, #92, .F. ) ;
#361 = PRODUCT_DEFINITION_SHAPE ( 'NONE', 'NONE',  #67 ) ;
#362 = AXIS2_PLACEMENT_3D ( 'NONE', #130, #286, #161 ) ;
#363 = LENGTH_MEASURE_WITH_UNIT ( LENGTH_MEASURE( 0.02539999999999999900 ), #47 );
#364 = CIRCLE ( 'NONE', #379, 0.4724409448818898100 ) ;
#365 = VERTEX_POINT ( 'NONE', #340 ) ;
#366 = EDGE_LOOP ( 'NONE', ( #123, #167 ) ) ;
#367 = EDGE_CURVE ( 'NONE', #121, #188, #320, .T. ) ;
#368 = CARTESIAN_POINT ( 'NONE',  ( -0.4035433070866141800, 0.0000000000000000000, 0.2086614173228346600 ) ) ;
#369 = VECTOR ( 'NONE', #206, 39.37007874015748100 ) ;
#370 = DIRECTION ( 'NONE',  ( 0.0000000000000000000, 0.0000000000000000000, 1.000000000000000000 ) ) ;
#371 = AXIS2_PLACEMENT_3D ( 'NONE', #35, #222, #37 ) ;
#372 = LINE ( 'NONE', #368, #137 ) ;
#373 = CARTESIAN_POINT ( 'NONE',  ( 0.0000000000000000000, 0.0000000000000000000, 0.2165354330708661500 ) ) ;
#374 = ORIENTED_EDGE ( 'NONE', *, *, #92, .T. ) ;
#375 = EDGE_CURVE ( 'NONE', #120, #213, #159, .T. ) ;
#376 = APPLICATION_CONTEXT ( 'automotive_design' ) ;
#377 =( CONVERSION_BASED_UNIT ( 'INCH', #147 ) LENGTH_UNIT ( ) NAMED_UNIT ( #381 ) );
#378 = ORIENTED_EDGE ( 'NONE', *, *, #221, .T. ) ;
#379 = AXIS2_PLACEMENT_3D ( 'NONE', #177, #85, #203 ) ;
#380 = PLANE ( 'NONE',  #191 ) ;
#381 = DIMENSIONAL_EXPONENTS ( 1.000000000000000000, 0.0000000000000000000, 0.0000000000000000000, 0.0000000000000000000, 0.0000000000000000000, 0.0000000000000000000, 0.0000000000000000000 ) ;
#382 = DIRECTION ( 'NONE',  ( 0.0000000000000000000, 0.0000000000000000000, 1.000000000000000000 ) ) ;
#383 = LINE ( 'NONE', #258, #190 ) ;
#384 = DIRECTION ( 'NONE',  ( 1.000000000000000000, 0.0000000000000000000, 0.0000000000000000000 ) ) ;
#385 = ORIENTED_EDGE ( 'NONE', *, *, #106, .T. ) ;
#386 = DIRECTION ( 'NONE',  ( 0.0000000000000000000, 0.0000000000000000000, 1.000000000000000000 ) ) ;
#387 = CARTESIAN_POINT ( 'NONE',  ( 0.0000000000000000000, 0.0000000000000000000, 0.03149606299212598400 ) ) ;
#388 = AXIS2_PLACEMENT_3D ( 'NONE', #345, #10, #71 ) ;
#389 = FACE_BOUND ( 'NONE', #257, .T. ) ;
ENDSEC;
END-ISO-10303-21;
