ISO-10303-21;
HEADER;
FILE_DESCRIPTION (( 'STEP AP214' ),
    '1' );
FILE_NAME ('RL-103-1.step',
    '2018-04-12T20:57:13',
    ( '' ),
    ( '' ),
    'SwSTEP 2.0',
    'SolidWorks 2017',
    '' );
FILE_SCHEMA (( 'AUTOMOTIVE_DESIGN' ));
ENDSEC;

DATA;
#1 = APPLICATION_PROTOCOL_DEFINITION ( 'draft international standard', 'automotive_design', 1998, #195 ) ;
#2 = AXIS2_PLACEMENT_3D ( 'NONE', #241, #79, #293 ) ;
#3 = ORIENTED_EDGE ( 'NONE', *, *, #228, .T. ) ;
#4 = VECTOR ( 'NONE', #85, 39.37007874015748100 ) ;
#5 = APPLICATION_CONTEXT ( 'automotive_design' ) ;
#6 = MECHANICAL_DESIGN_GEOMETRIC_PRESENTATION_REPRESENTATION (  '', ( #164 ), #365 ) ;
#7 = PRODUCT_CONTEXT ( 'NONE', #195, 'mechanical' ) ;
#8 = ADVANCED_FACE ( 'NONE', ( #249, #125 ), #204, .F. ) ;
#9 = VERTEX_POINT ( 'NONE', #366 ) ;
#10 = FACE_OUTER_BOUND ( 'NONE', #34, .T. ) ;
#11 = DIMENSIONAL_EXPONENTS ( 1.000000000000000000, 0.0000000000000000000, 0.0000000000000000000, 0.0000000000000000000, 0.0000000000000000000, 0.0000000000000000000, 0.0000000000000000000 ) ;
#12 = ORIENTED_EDGE ( 'NONE', *, *, #331, .T. ) ;
#13 = CARTESIAN_POINT ( 'NONE',  ( 0.0000000000000000000, 0.0000000000000000000, 0.2913385826771653900 ) ) ;
#14 = AXIS2_PLACEMENT_3D ( 'NONE', #62, #325, #355 ) ;
#15 = ADVANCED_FACE ( 'NONE', ( #148 ), #43, .T. ) ;
#16 = EDGE_CURVE ( 'NONE', #155, #9, #347, .T. ) ;
#17 = DIRECTION ( 'NONE',  ( 1.000000000000000000, 0.0000000000000000000, 0.0000000000000000000 ) ) ;
#18 = ORIENTED_EDGE ( 'NONE', *, *, #375, .F. ) ;
#19 = EDGE_LOOP ( 'NONE', ( #73, #234 ) ) ;
#20 = CIRCLE ( 'NONE', #252, 0.5905511811023621500 ) ;
#21 =( GEOMETRIC_REPRESENTATION_CONTEXT ( 3 ) GLOBAL_UNCERTAINTY_ASSIGNED_CONTEXT ( ( #22 ) ) GLOBAL_UNIT_ASSIGNED_CONTEXT ( ( #281, #126, #306 ) ) REPRESENTATION_CONTEXT ( 'NONE', 'WORKASPACE' ) );
#22 = UNCERTAINTY_MEASURE_WITH_UNIT (LENGTH_MEASURE( 1.000000000000000100E-005 ), #281, 'distance_accuracy_value', 'NONE');
#23 = CARTESIAN_POINT ( 'NONE',  ( -0.5905511811023621500, 0.0000000000000000000, 0.2834645669291339100 ) ) ;
#24 = VERTEX_POINT ( 'NONE', #105 ) ;
#25 = AXIS2_PLACEMENT_3D ( 'NONE', #345, #176, #319 ) ;
#26 = DIRECTION ( 'NONE',  ( -0.0000000000000000000, -0.0000000000000000000, -1.000000000000000000 ) ) ;
#27 = DIRECTION ( 'NONE',  ( -0.0000000000000000000, -0.0000000000000000000, -1.000000000000000000 ) ) ;
#28 = AXIS2_PLACEMENT_3D ( 'NONE', #359, #255, #92 ) ;
#29 = EDGE_LOOP ( 'NONE', ( #287, #283 ) ) ;
#30 = CYLINDRICAL_SURFACE ( 'NONE', #25, 0.6594488188976378500 ) ;
#31 = EDGE_CURVE ( 'NONE', #260, #81, #226, .T. ) ;
#32 = DIRECTION ( 'NONE',  ( 0.0000000000000000000, 0.0000000000000000000, 1.000000000000000000 ) ) ;
#33 =( NAMED_UNIT ( * ) SI_UNIT ( $, .STERADIAN. ) SOLID_ANGLE_UNIT ( ) );
#34 = EDGE_LOOP ( 'NONE', ( #113, #334 ) ) ;
#35 = ORIENTED_EDGE ( 'NONE', *, *, #215, .F. ) ;
#36 = CARTESIAN_POINT ( 'NONE',  ( 0.0000000000000000000, 0.0000000000000000000, 0.03149606299212598400 ) ) ;
#37 = MECHANICAL_DESIGN_GEOMETRIC_PRESENTATION_REPRESENTATION (  '', ( #346 ), #343 ) ;
#38 = CARTESIAN_POINT ( 'NONE',  ( 0.0000000000000000000, 0.0000000000000000000, 0.03149606299212598400 ) ) ;
#39 = EDGE_CURVE ( 'NONE', #207, #142, #198, .T. ) ;
#40 = ORIENTED_EDGE ( 'NONE', *, *, #97, .F. ) ;
#41 = SHAPE_DEFINITION_REPRESENTATION ( #130, #65 ) ;
#42 = PRODUCT_RELATED_PRODUCT_CATEGORY ( 'part', '', ( #118 ) ) ;
#43 = CYLINDRICAL_SURFACE ( 'NONE', #349, 0.6437007874015749900 ) ;
#44 = AXIS2_PLACEMENT_3D ( 'NONE', #115, #350, #381 ) ;
#45 = AXIS2_PLACEMENT_3D ( 'NONE', #318, #139, #212 ) ;
#46 = DIMENSIONAL_EXPONENTS ( 1.000000000000000000, 0.0000000000000000000, 0.0000000000000000000, 0.0000000000000000000, 0.0000000000000000000, 0.0000000000000000000, 0.0000000000000000000 ) ;
#47 = FACE_OUTER_BOUND ( 'NONE', #192, .T. ) ;
#48 = DIRECTION ( 'NONE',  ( 0.0000000000000000000, 0.0000000000000000000, 1.000000000000000000 ) ) ;
#49 = PRODUCT_DEFINITION_FORMATION_WITH_SPECIFIED_SOURCE ( 'ANY', '', #118, .NOT_KNOWN. ) ;
#50 = VECTOR ( 'NONE', #251, 39.37007874015748100 ) ;
#51 = DIRECTION ( 'NONE',  ( -0.0000000000000000000, -0.0000000000000000000, -1.000000000000000000 ) ) ;
#52 = DIRECTION ( 'NONE',  ( 0.0000000000000000000, 0.0000000000000000000, 1.000000000000000000 ) ) ;
#53 = CARTESIAN_POINT ( 'NONE',  ( -0.6594488188976378500, 8.075918852644948100E-017, 0.0000000000000000000 ) ) ;
#54 = ORIENTED_EDGE ( 'NONE', *, *, #146, .F. ) ;
#55 = ORIENTED_EDGE ( 'NONE', *, *, #156, .F. ) ;
#56 = CARTESIAN_POINT ( 'NONE',  ( 0.6437007874015749900, 7.883061088999697000E-017, 0.2913385826771653900 ) ) ;
#57 = AXIS2_PLACEMENT_3D ( 'NONE', #68, #285, #282 ) ;
#58 = DIRECTION ( 'NONE',  ( -0.0000000000000000000, -0.0000000000000000000, -1.000000000000000000 ) ) ;
#59 = VERTEX_POINT ( 'NONE', #83 ) ;
#60 = DIRECTION ( 'NONE',  ( 1.000000000000000000, 0.0000000000000000000, 0.0000000000000000000 ) ) ;
#61 = CIRCLE ( 'NONE', #326, 0.6594488188976378500 ) ;
#62 = CARTESIAN_POINT ( 'NONE',  ( 0.0000000000000000000, 0.0000000000000000000, 0.1811023622047244200 ) ) ;
#63 = DIRECTION ( 'NONE',  ( -0.0000000000000000000, -0.0000000000000000000, -1.000000000000000000 ) ) ;
#64 = EDGE_LOOP ( 'NONE', ( #340, #257 ) ) ;
#65 = ADVANCED_BREP_SHAPE_REPRESENTATION ( 'RL-103-1', ( #233, #96 ), #21 ) ;
#66 = EDGE_LOOP ( 'NONE', ( #3, #217, #103, #141 ) ) ;
#67 = DIRECTION ( 'NONE',  ( 0.0000000000000000000, 0.0000000000000000000, 1.000000000000000000 ) ) ;
#68 = CARTESIAN_POINT ( 'NONE',  ( 0.0000000000000000000, 0.0000000000000000000, 0.2834645669291339100 ) ) ;
#69 = AXIS2_PLACEMENT_3D ( 'NONE', #237, #51, #211 ) ;
#70 = ORIENTED_EDGE ( 'NONE', *, *, #111, .F. ) ;
#71 = VECTOR ( 'NONE', #120, 39.37007874015748100 ) ;
#72 = AXIS2_PLACEMENT_3D ( 'NONE', #377, #179, #239 ) ;
#73 = ORIENTED_EDGE ( 'NONE', *, *, #16, .T. ) ;
#74 = ADVANCED_FACE ( 'NONE', ( #108 ), #232, .T. ) ;
#75 = CIRCLE ( 'NONE', #14, 0.6437007874015749900 ) ;
#76 = UNCERTAINTY_MEASURE_WITH_UNIT (LENGTH_MEASURE( 1.000000000000000100E-005 ), #190, 'distance_accuracy_value', 'NONE');
#77 = ADVANCED_FACE ( 'NONE', ( #47 ), #280, .T. ) ;
#78 = VERTEX_POINT ( 'NONE', #53 ) ;
#79 = DIRECTION ( 'NONE',  ( 0.0000000000000000000, 0.0000000000000000000, 1.000000000000000000 ) ) ;
#80 = DIRECTION ( 'NONE',  ( -0.0000000000000000000, -0.0000000000000000000, -1.000000000000000000 ) ) ;
#81 = VERTEX_POINT ( 'NONE', #23 ) ;
#82 = CIRCLE ( 'NONE', #28, 0.6791338582677166600 ) ;
#83 = CARTESIAN_POINT ( 'NONE',  ( -0.6437007874015749900, 0.0000000000000000000, 0.2913385826771653900 ) ) ;
#84 = SURFACE_STYLE_FILL_AREA ( #147 ) ;
#85 = DIRECTION ( 'NONE',  ( -0.0000000000000000000, -0.0000000000000000000, -1.000000000000000000 ) ) ;
#86 = DIRECTION ( 'NONE',  ( -0.0000000000000000000, -0.0000000000000000000, -1.000000000000000000 ) ) ;
#87 = CARTESIAN_POINT ( 'NONE',  ( 0.0000000000000000000, 0.0000000000000000000, 0.0000000000000000000 ) ) ;
#88 = DIRECTION ( 'NONE',  ( 1.000000000000000000, 0.0000000000000000000, 0.0000000000000000000 ) ) ;
#89 = PLANE ( 'NONE',  #44 ) ;
#90 = AXIS2_PLACEMENT_3D ( 'NONE', #13, #262, #313 ) ;
#91 = CYLINDRICAL_SURFACE ( 'NONE', #279, 0.5905511811023621500 ) ;
#92 = DIRECTION ( 'NONE',  ( 1.000000000000000000, 0.0000000000000000000, 0.0000000000000000000 ) ) ;
#93 = CARTESIAN_POINT ( 'NONE',  ( 0.0000000000000000000, 0.0000000000000000000, 0.2913385826771653900 ) ) ;
#94 = ORIENTED_EDGE ( 'NONE', *, *, #267, .T. ) ;
#95 = DIRECTION ( 'NONE',  ( 0.0000000000000000000, 0.0000000000000000000, 1.000000000000000000 ) ) ;
#96 = AXIS2_PLACEMENT_3D ( 'NONE', #196, #197, #199 ) ;
#97 = EDGE_CURVE ( 'NONE', #121, #248, #258, .T. ) ;
#98 = EDGE_LOOP ( 'NONE', ( #276, #112, #175, #307 ) ) ;
#99 = ADVANCED_FACE ( 'NONE', ( #298 ), #30, .T. ) ;
#100 = ORIENTED_EDGE ( 'NONE', *, *, #354, .F. ) ;
#101 = LINE ( 'NONE', #225, #183 ) ;
#102 = VECTOR ( 'NONE', #297, 39.37007874015748100 ) ;
#103 = ORIENTED_EDGE ( 'NONE', *, *, #97, .T. ) ;
#104 = COLOUR_RGB ( '',0.8000000000000000400, 0.8000000000000000400, 0.8000000000000000400 ) ;
#105 = CARTESIAN_POINT ( 'NONE',  ( 0.5905511811023621500, 7.232166136696967600E-017, 0.2834645669291339100 ) ) ;
#106 = AXIS2_PLACEMENT_3D ( 'NONE', #247, #86, #320 ) ;
#107 = DIRECTION ( 'NONE',  ( 0.0000000000000000000, 0.0000000000000000000, 1.000000000000000000 ) ) ;
#108 = FACE_OUTER_BOUND ( 'NONE', #270, .T. ) ;
#109 = FACE_OUTER_BOUND ( 'NONE', #98, .T. ) ;
#110 = CARTESIAN_POINT ( 'NONE',  ( 0.6594488188976378500, 0.0000000000000000000, 0.03149606299212598400 ) ) ;
#111 = EDGE_CURVE ( 'NONE', #266, #202, #151, .T. ) ;
#112 = ORIENTED_EDGE ( 'NONE', *, *, #146, .T. ) ;
#113 = ORIENTED_EDGE ( 'NONE', *, *, #215, .T. ) ;
#114 = CARTESIAN_POINT ( 'NONE',  ( 0.0000000000000000000, 0.0000000000000000000, 0.2834645669291339100 ) ) ;
#115 = CARTESIAN_POINT ( 'NONE',  ( 0.0000000000000000000, 0.0000000000000000000, 0.1811023622047244200 ) ) ;
#116 = UNCERTAINTY_MEASURE_WITH_UNIT (LENGTH_MEASURE( 1.000000000000000100E-005 ), #153, 'distance_accuracy_value', 'NONE');
#117 = CYLINDRICAL_SURFACE ( 'NONE', #2, 0.6791338582677166600 ) ;
#118 = PRODUCT ( 'RL-103-1', 'RL-103-1', '', ( #7 ) ) ;
#119 = PRESENTATION_LAYER_ASSIGNMENT (  '', '', ( #164 ) ) ;
#120 = DIRECTION ( 'NONE',  ( -0.0000000000000000000, -0.0000000000000000000, -1.000000000000000000 ) ) ;
#121 = VERTEX_POINT ( 'NONE', #314 ) ;
#122 = CARTESIAN_POINT ( 'NONE',  ( 0.0000000000000000000, 0.0000000000000000000, 0.2834645669291339100 ) ) ;
#123 = DIRECTION ( 'NONE',  ( 1.000000000000000000, 0.0000000000000000000, 0.0000000000000000000 ) ) ;
#124 = FILL_AREA_STYLE ('',( #220 ) ) ;
#125 = FACE_BOUND ( 'NONE', #290, .T. ) ;
#126 =( NAMED_UNIT ( * ) PLANE_ANGLE_UNIT ( ) SI_UNIT ( $, .RADIAN. ) );
#127 = VERTEX_POINT ( 'NONE', #315 ) ;
#128 = SURFACE_STYLE_FILL_AREA ( #124 ) ;
#129 = LINE ( 'NONE', #216, #71 ) ;
#130 = PRODUCT_DEFINITION_SHAPE ( 'NONE', 'NONE',  #205 ) ;
#131 = AXIS2_PLACEMENT_3D ( 'NONE', #269, #292, #268 ) ;
#132 = ORIENTED_EDGE ( 'NONE', *, *, #236, .F. ) ;
#133 = ADVANCED_FACE ( 'NONE', ( #210 ), #373, .F. ) ;
#134 = LENGTH_MEASURE_WITH_UNIT ( LENGTH_MEASURE( 0.02539999999999999900 ), #351 );
#135 = ADVANCED_FACE ( 'NONE', ( #109 ), #117, .T. ) ;
#136 = FACE_BOUND ( 'NONE', #29, .T. ) ;
#137 = FACE_OUTER_BOUND ( 'NONE', #321, .T. ) ;
#138 = EDGE_CURVE ( 'NONE', #24, #81, #203, .T. ) ;
#139 = DIRECTION ( 'NONE',  ( -0.0000000000000000000, -0.0000000000000000000, -1.000000000000000000 ) ) ;
#140 = DIRECTION ( 'NONE',  ( -1.000000000000000000, 0.0000000000000000000, 0.0000000000000000000 ) ) ;
#141 = ORIENTED_EDGE ( 'NONE', *, *, #259, .F. ) ;
#142 = VERTEX_POINT ( 'NONE', #174 ) ;
#143 = CARTESIAN_POINT ( 'NONE',  ( 0.0000000000000000000, 0.0000000000000000000, 0.2913385826771653900 ) ) ;
#144 = DIRECTION ( 'NONE',  ( -1.000000000000000000, 0.0000000000000000000, 0.0000000000000000000 ) ) ;
#145 = CARTESIAN_POINT ( 'NONE',  ( -0.6437007874015749900, 0.0000000000000000000, 0.1771653543307086800 ) ) ;
#146 = EDGE_CURVE ( 'NONE', #9, #207, #159, .T. ) ;
#147 = FILL_AREA_STYLE ('',( #244 ) ) ;
#148 = FACE_OUTER_BOUND ( 'NONE', #66, .T. ) ;
#149 = CARTESIAN_POINT ( 'NONE',  ( -0.6437007874015749900, 0.0000000000000000000, 0.1811023622047244200 ) ) ;
#150 = CIRCLE ( 'NONE', #362, 0.5905511811023621500 ) ;
#151 = LINE ( 'NONE', #378, #284 ) ;
#152 = SURFACE_SIDE_STYLE ('',( #84 ) ) ;
#153 =( CONVERSION_BASED_UNIT ( 'INCH', #134 ) LENGTH_UNIT ( ) NAMED_UNIT ( #46 ) );
#154 = ORIENTED_EDGE ( 'NONE', *, *, #289, .F. ) ;
#155 = VERTEX_POINT ( 'NONE', #348 ) ;
#156 = EDGE_CURVE ( 'NONE', #168, #59, #336, .T. ) ;
#157 = SURFACE_STYLE_USAGE ( .BOTH. , #327 ) ;
#158 = LINE ( 'NONE', #160, #173 ) ;
#159 = LINE ( 'NONE', #214, #102 ) ;
#160 = CARTESIAN_POINT ( 'NONE',  ( 0.6791338582677166600, 0.0000000000000000000, 0.2913385826771653900 ) ) ;
#161 = ADVANCED_FACE ( 'NONE', ( #250 ), #227, .T. ) ;
#162 = DIRECTION ( 'NONE',  ( 0.0000000000000000000, 0.0000000000000000000, -1.000000000000000000 ) ) ;
#163 = ORIENTED_EDGE ( 'NONE', *, *, #322, .T. ) ;
#164 = STYLED_ITEM ( 'NONE', ( #166 ), #65 ) ;
#165 = CARTESIAN_POINT ( 'NONE',  ( 0.5905511811023621500, 7.232166136696967600E-017, 0.2834645669291339100 ) ) ;
#166 = PRESENTATION_STYLE_ASSIGNMENT (( #157 ) ) ;
#167 = APPLICATION_PROTOCOL_DEFINITION ( 'draft international standard', 'automotive_design', 1998, #5 ) ;
#168 = VERTEX_POINT ( 'NONE', #56 ) ;
#169 = CIRCLE ( 'NONE', #388, 0.6437007874015749900 ) ;
#170 = AXIS2_PLACEMENT_3D ( 'NONE', #36, #63, #223 ) ;
#171 = VERTEX_POINT ( 'NONE', #384 ) ;
#172 = DIRECTION ( 'NONE',  ( -0.0000000000000000000, -0.0000000000000000000, -1.000000000000000000 ) ) ;
#173 = VECTOR ( 'NONE', #360, 39.37007874015748100 ) ;
#174 = CARTESIAN_POINT ( 'NONE',  ( 0.6791338582677166600, 0.0000000000000000000, 0.1811023622047244200 ) ) ;
#175 = ORIENTED_EDGE ( 'NONE', *, *, #39, .T. ) ;
#176 = DIRECTION ( 'NONE',  ( 0.0000000000000000000, 0.0000000000000000000, 1.000000000000000000 ) ) ;
#177 = CIRCLE ( 'NONE', #106, 0.6594488188976378500 ) ;
#178 = AXIS2_PLACEMENT_3D ( 'NONE', #265, #107, #344 ) ;
#179 = DIRECTION ( 'NONE',  ( -0.0000000000000000000, -0.0000000000000000000, -1.000000000000000000 ) ) ;
#180 = DIRECTION ( 'NONE',  ( 0.0000000000000000000, 0.0000000000000000000, 1.000000000000000000 ) ) ;
#181 = ORIENTED_EDGE ( 'NONE', *, *, #138, .F. ) ;
#182 = SURFACE_STYLE_USAGE ( .BOTH. , #152 ) ;
#183 = VECTOR ( 'NONE', #253, 39.37007874015748100 ) ;
#184 = CARTESIAN_POINT ( 'NONE',  ( 0.0000000000000000000, 0.0000000000000000000, 0.2913385826771653900 ) ) ;
#185 = CARTESIAN_POINT ( 'NONE',  ( 0.0000000000000000000, 0.0000000000000000000, 0.1811023622047244200 ) ) ;
#186 = EDGE_CURVE ( 'NONE', #168, #121, #129, .T. ) ;
#187 = DIRECTION ( 'NONE',  ( -1.000000000000000000, 0.0000000000000000000, 0.0000000000000000000 ) ) ;
#188 = EDGE_LOOP ( 'NONE', ( #288, #55 ) ) ;
#189 = DIRECTION ( 'NONE',  ( -0.0000000000000000000, -0.0000000000000000000, -1.000000000000000000 ) ) ;
#190 =( CONVERSION_BASED_UNIT ( 'INCH', #263 ) LENGTH_UNIT ( ) NAMED_UNIT ( #11 ) );
#191 = PLANE ( 'NONE',  #57 ) ;
#192 = EDGE_LOOP ( 'NONE', ( #54, #296, #163, #364 ) ) ;
#193 = ORIENTED_EDGE ( 'NONE', *, *, #289, .T. ) ;
#194 = AXIS2_PLACEMENT_3D ( 'NONE', #87, #301, #123 ) ;
#195 = APPLICATION_CONTEXT ( 'automotive_design' ) ;
#196 = CARTESIAN_POINT ( 'NONE',  ( 0.0000000000000000000, 0.0000000000000000000, 0.0000000000000000000 ) ) ;
#197 = DIRECTION ( 'NONE',  ( 0.0000000000000000000, 0.0000000000000000000, 1.000000000000000000 ) ) ;
#198 = CIRCLE ( 'NONE', #131, 0.6791338582677166600 ) ;
#199 = DIRECTION ( 'NONE',  ( 1.000000000000000000, 0.0000000000000000000, 0.0000000000000000000 ) ) ;
#200 = FACE_OUTER_BOUND ( 'NONE', #19, .T. ) ;
#201 = AXIS2_PLACEMENT_3D ( 'NONE', #380, #80, #140 ) ;
#202 = VERTEX_POINT ( 'NONE', #110 ) ;
#203 = CIRCLE ( 'NONE', #367, 0.5905511811023621500 ) ;
#204 = PLANE ( 'NONE',  #90 ) ;
#205 = PRODUCT_DEFINITION ( 'UNKNOWN', '', #49, #337 ) ;
#206 = ADVANCED_FACE ( 'NONE', ( #10 ), #300, .T. ) ;
#207 = VERTEX_POINT ( 'NONE', #208 ) ;
#208 = CARTESIAN_POINT ( 'NONE',  ( -0.6791338582677166600, 8.316991057201514200E-017, 0.1811023622047244200 ) ) ;
#209 = EDGE_CURVE ( 'NONE', #171, #202, #177, .T. ) ;
#210 = FACE_OUTER_BOUND ( 'NONE', #387, .T. ) ;
#211 = DIRECTION ( 'NONE',  ( -1.000000000000000000, 0.0000000000000000000, 0.0000000000000000000 ) ) ;
#212 = DIRECTION ( 'NONE',  ( -1.000000000000000000, 0.0000000000000000000, 0.0000000000000000000 ) ) ;
#213 = ORIENTED_EDGE ( 'NONE', *, *, #259, .T. ) ;
#214 = CARTESIAN_POINT ( 'NONE',  ( -0.6791338582677166600, 8.316991057201514200E-017, 0.2913385826771653900 ) ) ;
#215 = EDGE_CURVE ( 'NONE', #266, #78, #61, .T. ) ;
#216 = CARTESIAN_POINT ( 'NONE',  ( 0.6437007874015749900, 7.883061088999697000E-017, 0.1771653543307086800 ) ) ;
#217 = ORIENTED_EDGE ( 'NONE', *, *, #186, .T. ) ;
#218 = CARTESIAN_POINT ( 'NONE',  ( 0.6594488188976378500, 0.0000000000000000000, 0.0000000000000000000 ) ) ;
#219 = AXIS2_PLACEMENT_3D ( 'NONE', #302, #67, #286 ) ;
#220 = FILL_AREA_STYLE_COLOUR ( '', #104 ) ;
#221 =( NAMED_UNIT ( * ) PLANE_ANGLE_UNIT ( ) SI_UNIT ( $, .RADIAN. ) );
#222 = ORIENTED_EDGE ( 'NONE', *, *, #31, .F. ) ;
#223 = DIRECTION ( 'NONE',  ( 1.000000000000000000, 0.0000000000000000000, 0.0000000000000000000 ) ) ;
#224 = DIRECTION ( 'NONE',  ( -1.000000000000000000, 0.0000000000000000000, 0.0000000000000000000 ) ) ;
#225 = CARTESIAN_POINT ( 'NONE',  ( -0.6594488188976378500, 8.075918852644948100E-017, 0.02755905511811023600 ) ) ;
#226 = LINE ( 'NONE', #235, #264 ) ;
#227 = CYLINDRICAL_SURFACE ( 'NONE', #310, 0.6594488188976378500 ) ;
#228 = EDGE_CURVE ( 'NONE', #59, #168, #169, .T. ) ;
#229 = ADVANCED_FACE ( 'NONE', ( #137 ), #91, .F. ) ;
#230 = ORIENTED_EDGE ( 'NONE', *, *, #354, .T. ) ;
#231 = EDGE_LOOP ( 'NONE', ( #316, #40 ) ) ;
#232 = CYLINDRICAL_SURFACE ( 'NONE', #201, 0.6437007874015749900 ) ;
#233 = MANIFOLD_SOLID_BREP ( '1', #317 ) ;
#234 = ORIENTED_EDGE ( 'NONE', *, *, #328, .T. ) ;
#235 = CARTESIAN_POINT ( 'NONE',  ( -0.5905511811023621500, 0.0000000000000000000, 0.2834645669291339100 ) ) ;
#236 = EDGE_CURVE ( 'NONE', #78, #266, #273, .T. ) ;
#237 = CARTESIAN_POINT ( 'NONE',  ( 0.0000000000000000000, 0.0000000000000000000, 0.2913385826771653900 ) ) ;
#238 = PRESENTATION_LAYER_ASSIGNMENT (  '', '', ( #346 ) ) ;
#239 = DIRECTION ( 'NONE',  ( 1.000000000000000000, 0.0000000000000000000, 0.0000000000000000000 ) ) ;
#240 = EDGE_LOOP ( 'NONE', ( #369, #311 ) ) ;
#241 = CARTESIAN_POINT ( 'NONE',  ( 0.0000000000000000000, 0.0000000000000000000, 0.2913385826771653900 ) ) ;
#242 = LENGTH_MEASURE_WITH_UNIT ( LENGTH_MEASURE( 0.02539999999999999900 ), #329 );
#243 = AXIS2_PLACEMENT_3D ( 'NONE', #143, #52, #295 ) ;
#244 = FILL_AREA_STYLE_COLOUR ( '', #379 ) ;
#245 = FACE_BOUND ( 'NONE', #231, .T. ) ;
#246 = EDGE_CURVE ( 'NONE', #142, #207, #335, .T. ) ;
#247 = CARTESIAN_POINT ( 'NONE',  ( 0.0000000000000000000, 0.0000000000000000000, 0.03149606299212598400 ) ) ;
#248 = VERTEX_POINT ( 'NONE', #149 ) ;
#249 = FACE_OUTER_BOUND ( 'NONE', #188, .T. ) ;
#250 = FACE_OUTER_BOUND ( 'NONE', #376, .T. ) ;
#251 = DIRECTION ( 'NONE',  ( -0.0000000000000000000, -0.0000000000000000000, -1.000000000000000000 ) ) ;
#252 = AXIS2_PLACEMENT_3D ( 'NONE', #93, #95, #304 ) ;
#253 = DIRECTION ( 'NONE',  ( 0.0000000000000000000, 0.0000000000000000000, 1.000000000000000000 ) ) ;
#254 = ORIENTED_EDGE ( 'NONE', *, *, #186, .F. ) ;
#255 = DIRECTION ( 'NONE',  ( -0.0000000000000000000, -0.0000000000000000000, -1.000000000000000000 ) ) ;
#256 = EDGE_CURVE ( 'NONE', #248, #121, #75, .T. ) ;
#257 = ORIENTED_EDGE ( 'NONE', *, *, #138, .T. ) ;
#258 = CIRCLE ( 'NONE', #178, 0.6437007874015749900 ) ;
#259 = EDGE_CURVE ( 'NONE', #59, #248, #278, .T. ) ;
#260 = VERTEX_POINT ( 'NONE', #383 ) ;
#261 = ADVANCED_FACE ( 'NONE', ( #291, #245 ), #89, .F. ) ;
#262 = DIRECTION ( 'NONE',  ( 0.0000000000000000000, 0.0000000000000000000, -1.000000000000000000 ) ) ;
#263 = LENGTH_MEASURE_WITH_UNIT ( LENGTH_MEASURE( 0.02539999999999999900 ), #356 );
#264 = VECTOR ( 'NONE', #371, 39.37007874015748100 ) ;
#265 = CARTESIAN_POINT ( 'NONE',  ( 0.0000000000000000000, 0.0000000000000000000, 0.1811023622047244200 ) ) ;
#266 = VERTEX_POINT ( 'NONE', #218 ) ;
#267 = EDGE_CURVE ( 'NONE', #202, #171, #361, .T. ) ;
#268 = DIRECTION ( 'NONE',  ( 1.000000000000000000, 0.0000000000000000000, 0.0000000000000000000 ) ) ;
#269 = CARTESIAN_POINT ( 'NONE',  ( 0.0000000000000000000, 0.0000000000000000000, 0.1811023622047244200 ) ) ;
#270 = EDGE_LOOP ( 'NONE', ( #254, #363, #213, #357 ) ) ;
#271 = EDGE_LOOP ( 'NONE', ( #132, #193, #324, #70 ) ) ;
#272 = AXIS2_PLACEMENT_3D ( 'NONE', #38, #162, #386 ) ;
#273 = CIRCLE ( 'NONE', #194, 0.6594488188976378500 ) ;
#274 = DIRECTION ( 'NONE',  ( 0.0000000000000000000, 0.0000000000000000000, -1.000000000000000000 ) ) ;
#275 = CARTESIAN_POINT ( 'NONE',  ( 0.0000000000000000000, 0.0000000000000000000, 0.0000000000000000000 ) ) ;
#276 = ORIENTED_EDGE ( 'NONE', *, *, #328, .F. ) ;
#277 = DIRECTION ( 'NONE',  ( -1.000000000000000000, 0.0000000000000000000, 0.0000000000000000000 ) ) ;
#278 = LINE ( 'NONE', #145, #4 ) ;
#279 = AXIS2_PLACEMENT_3D ( 'NONE', #122, #58, #187 ) ;
#280 = CYLINDRICAL_SURFACE ( 'NONE', #243, 0.6791338582677166600 ) ;
#281 =( CONVERSION_BASED_UNIT ( 'INCH', #242 ) LENGTH_UNIT ( ) NAMED_UNIT ( #312 ) );
#282 = DIRECTION ( 'NONE',  ( -1.000000000000000000, 0.0000000000000000000, -0.0000000000000000000 ) ) ;
#283 = ORIENTED_EDGE ( 'NONE', *, *, #209, .F. ) ;
#284 = VECTOR ( 'NONE', #48, 39.37007874015748100 ) ;
#285 = DIRECTION ( 'NONE',  ( 0.0000000000000000000, 0.0000000000000000000, -1.000000000000000000 ) ) ;
#286 = DIRECTION ( 'NONE',  ( -1.000000000000000000, 0.0000000000000000000, 0.0000000000000000000 ) ) ;
#287 = ORIENTED_EDGE ( 'NONE', *, *, #267, .F. ) ;
#288 = ORIENTED_EDGE ( 'NONE', *, *, #228, .F. ) ;
#289 = EDGE_CURVE ( 'NONE', #78, #171, #101, .T. ) ;
#290 = EDGE_LOOP ( 'NONE', ( #100, #294 ) ) ;
#291 = FACE_OUTER_BOUND ( 'NONE', #240, .T. ) ;
#292 = DIRECTION ( 'NONE',  ( -0.0000000000000000000, -0.0000000000000000000, -1.000000000000000000 ) ) ;
#293 = DIRECTION ( 'NONE',  ( 1.000000000000000000, 0.0000000000000000000, 0.0000000000000000000 ) ) ;
#294 = ORIENTED_EDGE ( 'NONE', *, *, #331, .F. ) ;
#295 = DIRECTION ( 'NONE',  ( 1.000000000000000000, 0.0000000000000000000, 0.0000000000000000000 ) ) ;
#296 = ORIENTED_EDGE ( 'NONE', *, *, #16, .F. ) ;
#297 = DIRECTION ( 'NONE',  ( 0.0000000000000000000, 0.0000000000000000000, 1.000000000000000000 ) ) ;
#298 = FACE_OUTER_BOUND ( 'NONE', #271, .T. ) ;
#299 = DIRECTION ( 'NONE',  ( -1.000000000000000000, 0.0000000000000000000, -0.0000000000000000000 ) ) ;
#300 = PLANE ( 'NONE',  #372 ) ;
#301 = DIRECTION ( 'NONE',  ( -0.0000000000000000000, -0.0000000000000000000, -1.000000000000000000 ) ) ;
#302 = CARTESIAN_POINT ( 'NONE',  ( 0.0000000000000000000, 0.0000000000000000000, 0.2913385826771653900 ) ) ;
#303 = ORIENTED_EDGE ( 'NONE', *, *, #111, .T. ) ;
#304 = DIRECTION ( 'NONE',  ( -1.000000000000000000, 0.0000000000000000000, 0.0000000000000000000 ) ) ;
#305 = PRESENTATION_STYLE_ASSIGNMENT (( #182 ) ) ;
#306 =( NAMED_UNIT ( * ) SI_UNIT ( $, .STERADIAN. ) SOLID_ANGLE_UNIT ( ) );
#307 = ORIENTED_EDGE ( 'NONE', *, *, #322, .F. ) ;
#308 = EDGE_CURVE ( 'NONE', #127, #24, #333, .T. ) ;
#309 = FACE_OUTER_BOUND ( 'NONE', #64, .T. ) ;
#310 = AXIS2_PLACEMENT_3D ( 'NONE', #342, #374, #17 ) ;
#311 = ORIENTED_EDGE ( 'NONE', *, *, #39, .F. ) ;
#312 = DIMENSIONAL_EXPONENTS ( 1.000000000000000000, 0.0000000000000000000, 0.0000000000000000000, 0.0000000000000000000, 0.0000000000000000000, 0.0000000000000000000, 0.0000000000000000000 ) ;
#313 = DIRECTION ( 'NONE',  ( -1.000000000000000000, 0.0000000000000000000, -0.0000000000000000000 ) ) ;
#314 = CARTESIAN_POINT ( 'NONE',  ( 0.6437007874015749900, 7.883061088999697000E-017, 0.1811023622047244200 ) ) ;
#315 = CARTESIAN_POINT ( 'NONE',  ( 0.5905511811023621500, 7.232166136696967600E-017, 0.2913385826771653900 ) ) ;
#316 = ORIENTED_EDGE ( 'NONE', *, *, #256, .F. ) ;
#317 = CLOSED_SHELL ( 'NONE', ( #99, #135, #15, #229, #206, #161, #370, #77, #261, #74, #8, #133, #339 ) ) ;
#318 = CARTESIAN_POINT ( 'NONE',  ( 0.0000000000000000000, 0.0000000000000000000, 0.2834645669291339100 ) ) ;
#319 = DIRECTION ( 'NONE',  ( 1.000000000000000000, 0.0000000000000000000, 0.0000000000000000000 ) ) ;
#320 = DIRECTION ( 'NONE',  ( 1.000000000000000000, 0.0000000000000000000, 0.0000000000000000000 ) ) ;
#321 = EDGE_LOOP ( 'NONE', ( #230, #352, #18, #222 ) ) ;
#322 = EDGE_CURVE ( 'NONE', #155, #142, #158, .T. ) ;
#323 = CARTESIAN_POINT ( 'NONE',  ( 0.0000000000000000000, 0.0000000000000000000, 0.0000000000000000000 ) ) ;
#324 = ORIENTED_EDGE ( 'NONE', *, *, #209, .T. ) ;
#325 = DIRECTION ( 'NONE',  ( 0.0000000000000000000, 0.0000000000000000000, 1.000000000000000000 ) ) ;
#326 = AXIS2_PLACEMENT_3D ( 'NONE', #323, #189, #88 ) ;
#327 = SURFACE_SIDE_STYLE ('',( #128 ) ) ;
#328 = EDGE_CURVE ( 'NONE', #9, #155, #82, .T. ) ;
#329 =( LENGTH_UNIT ( ) NAMED_UNIT ( * ) SI_UNIT ( $, .METRE. ) );
#330 = ORIENTED_EDGE ( 'NONE', *, *, #31, .T. ) ;
#331 = EDGE_CURVE ( 'NONE', #127, #260, #389, .T. ) ;
#332 = PLANE ( 'NONE',  #272 ) ;
#333 = LINE ( 'NONE', #165, #50 ) ;
#334 = ORIENTED_EDGE ( 'NONE', *, *, #236, .T. ) ;
#335 = CIRCLE ( 'NONE', #382, 0.6791338582677166600 ) ;
#336 = CIRCLE ( 'NONE', #69, 0.6437007874015749900 ) ;
#337 = PRODUCT_DEFINITION_CONTEXT ( 'detailed design', #5, 'design' ) ;
#338 = ORIENTED_EDGE ( 'NONE', *, *, #308, .F. ) ;
#339 = ADVANCED_FACE ( 'NONE', ( #309 ), #191, .F. ) ;
#340 = ORIENTED_EDGE ( 'NONE', *, *, #375, .T. ) ;
#341 = CARTESIAN_POINT ( 'NONE',  ( 0.0000000000000000000, 0.0000000000000000000, 0.1771653543307086800 ) ) ;
#342 = CARTESIAN_POINT ( 'NONE',  ( 0.0000000000000000000, 0.0000000000000000000, 0.02755905511811023600 ) ) ;
#343 =( GEOMETRIC_REPRESENTATION_CONTEXT ( 3 ) GLOBAL_UNCERTAINTY_ASSIGNED_CONTEXT ( ( #116 ) ) GLOBAL_UNIT_ASSIGNED_CONTEXT ( ( #153, #353, #385 ) ) REPRESENTATION_CONTEXT ( 'NONE', 'WORKASPACE' ) );
#344 = DIRECTION ( 'NONE',  ( -1.000000000000000000, 0.0000000000000000000, 0.0000000000000000000 ) ) ;
#345 = CARTESIAN_POINT ( 'NONE',  ( 0.0000000000000000000, 0.0000000000000000000, 0.02755905511811023600 ) ) ;
#346 = STYLED_ITEM ( 'NONE', ( #305 ), #233 ) ;
#347 = CIRCLE ( 'NONE', #72, 0.6791338582677166600 ) ;
#348 = CARTESIAN_POINT ( 'NONE',  ( 0.6791338582677166600, 0.0000000000000000000, 0.03149606299212599800 ) ) ;
#349 = AXIS2_PLACEMENT_3D ( 'NONE', #341, #172, #368 ) ;
#350 = DIRECTION ( 'NONE',  ( 0.0000000000000000000, 0.0000000000000000000, -1.000000000000000000 ) ) ;
#351 =( LENGTH_UNIT ( ) NAMED_UNIT ( * ) SI_UNIT ( $, .METRE. ) );
#352 = ORIENTED_EDGE ( 'NONE', *, *, #308, .T. ) ;
#353 =( NAMED_UNIT ( * ) PLANE_ANGLE_UNIT ( ) SI_UNIT ( $, .RADIAN. ) );
#354 = EDGE_CURVE ( 'NONE', #260, #127, #20, .T. ) ;
#355 = DIRECTION ( 'NONE',  ( -1.000000000000000000, 0.0000000000000000000, 0.0000000000000000000 ) ) ;
#356 =( LENGTH_UNIT ( ) NAMED_UNIT ( * ) SI_UNIT ( $, .METRE. ) );
#357 = ORIENTED_EDGE ( 'NONE', *, *, #256, .T. ) ;
#358 = CARTESIAN_POINT ( 'NONE',  ( 0.0000000000000000000, 0.0000000000000000000, 0.2834645669291339100 ) ) ;
#359 = CARTESIAN_POINT ( 'NONE',  ( 0.0000000000000000000, 0.0000000000000000000, 0.03149606299212599800 ) ) ;
#360 = DIRECTION ( 'NONE',  ( 0.0000000000000000000, 0.0000000000000000000, 1.000000000000000000 ) ) ;
#361 = CIRCLE ( 'NONE', #170, 0.6594488188976378500 ) ;
#362 = AXIS2_PLACEMENT_3D ( 'NONE', #358, #32, #224 ) ;
#363 = ORIENTED_EDGE ( 'NONE', *, *, #156, .T. ) ;
#364 = ORIENTED_EDGE ( 'NONE', *, *, #246, .T. ) ;
#365 =( GEOMETRIC_REPRESENTATION_CONTEXT ( 3 ) GLOBAL_UNCERTAINTY_ASSIGNED_CONTEXT ( ( #76 ) ) GLOBAL_UNIT_ASSIGNED_CONTEXT ( ( #190, #221, #33 ) ) REPRESENTATION_CONTEXT ( 'NONE', 'WORKASPACE' ) );
#366 = CARTESIAN_POINT ( 'NONE',  ( -0.6791338582677166600, 8.316991057201514200E-017, 0.03149606299212599800 ) ) ;
#367 = AXIS2_PLACEMENT_3D ( 'NONE', #114, #180, #144 ) ;
#368 = DIRECTION ( 'NONE',  ( -1.000000000000000000, 0.0000000000000000000, 0.0000000000000000000 ) ) ;
#369 = ORIENTED_EDGE ( 'NONE', *, *, #246, .F. ) ;
#370 = ADVANCED_FACE ( 'NONE', ( #136, #200 ), #332, .T. ) ;
#371 = DIRECTION ( 'NONE',  ( -0.0000000000000000000, -0.0000000000000000000, -1.000000000000000000 ) ) ;
#372 = AXIS2_PLACEMENT_3D ( 'NONE', #275, #274, #299 ) ;
#373 = CYLINDRICAL_SURFACE ( 'NONE', #45, 0.5905511811023621500 ) ;
#374 = DIRECTION ( 'NONE',  ( 0.0000000000000000000, 0.0000000000000000000, 1.000000000000000000 ) ) ;
#375 = EDGE_CURVE ( 'NONE', #81, #24, #150, .T. ) ;
#376 = EDGE_LOOP ( 'NONE', ( #154, #35, #303, #94 ) ) ;
#377 = CARTESIAN_POINT ( 'NONE',  ( 0.0000000000000000000, 0.0000000000000000000, 0.03149606299212599800 ) ) ;
#378 = CARTESIAN_POINT ( 'NONE',  ( 0.6594488188976378500, 0.0000000000000000000, 0.02755905511811023600 ) ) ;
#379 = COLOUR_RGB ( '',0.8000000000000000400, 0.8000000000000000400, 0.8000000000000000400 ) ;
#380 = CARTESIAN_POINT ( 'NONE',  ( 0.0000000000000000000, 0.0000000000000000000, 0.1771653543307086800 ) ) ;
#381 = DIRECTION ( 'NONE',  ( -1.000000000000000000, 0.0000000000000000000, -0.0000000000000000000 ) ) ;
#382 = AXIS2_PLACEMENT_3D ( 'NONE', #185, #27, #60 ) ;
#383 = CARTESIAN_POINT ( 'NONE',  ( -0.5905511811023621500, 0.0000000000000000000, 0.2913385826771653900 ) ) ;
#384 = CARTESIAN_POINT ( 'NONE',  ( -0.6594488188976378500, 8.075918852644948100E-017, 0.03149606299212598400 ) ) ;
#385 =( NAMED_UNIT ( * ) SI_UNIT ( $, .STERADIAN. ) SOLID_ANGLE_UNIT ( ) );
#386 = DIRECTION ( 'NONE',  ( -1.000000000000000000, 0.0000000000000000000, -0.0000000000000000000 ) ) ;
#387 = EDGE_LOOP ( 'NONE', ( #338, #12, #330, #181 ) ) ;
#388 = AXIS2_PLACEMENT_3D ( 'NONE', #184, #26, #277 ) ;
#389 = CIRCLE ( 'NONE', #219, 0.5905511811023621500 ) ;
ENDSEC;
END-ISO-10303-21;
