ISO-10303-21;
HEADER;
FILE_DESCRIPTION (( 'STEP AP214' ),
    '1' );
FILE_NAME ('RL-103.step',
    '2018-04-12T20:56:58',
    ( '' ),
    ( '' ),
    'SwSTEP 2.0',
    'SolidWorks 2017',
    '' );
FILE_SCHEMA (( 'AUTOMOTIVE_DESIGN' ));
ENDSEC;

DATA;
#1 = AXIS2_PLACEMENT_3D ( 'NONE', #302, #39, #243 ) ;
#2 = MANIFOLD_SOLID_BREP ( '1', #306 ) ;
#3 = ORIENTED_EDGE ( 'NONE', *, *, #364, .T. ) ;
#4 = EDGE_CURVE ( 'NONE', #116, #210, #365, .T. ) ;
#5 = CARTESIAN_POINT ( 'NONE',  ( 0.0000000000000000000, 0.0000000000000000000, 0.2913385826771653900 ) ) ;
#6 = ORIENTED_EDGE ( 'NONE', *, *, #376, .T. ) ;
#7 = DIRECTION ( 'NONE',  ( 1.000000000000000000, 0.0000000000000000000, 0.0000000000000000000 ) ) ;
#8 = LINE ( 'NONE', #78, #352 ) ;
#9 = APPLICATION_PROTOCOL_DEFINITION ( 'draft international standard', 'automotive_design', 1998, #339 ) ;
#10 = AXIS2_PLACEMENT_3D ( 'NONE', #5, #99, #284 ) ;
#11 = FACE_OUTER_BOUND ( 'NONE', #217, .T. ) ;
#12 = EDGE_LOOP ( 'NONE', ( #163, #242 ) ) ;
#13 =( CONVERSION_BASED_UNIT ( 'INCH', #132 ) LENGTH_UNIT ( ) NAMED_UNIT ( #329 ) );
#14 = STYLED_ITEM ( 'NONE', ( #126 ), #2 ) ;
#15 = DIRECTION ( 'NONE',  ( 0.0000000000000000000, 0.0000000000000000000, 1.000000000000000000 ) ) ;
#16 = DIRECTION ( 'NONE',  ( 0.0000000000000000000, 0.0000000000000000000, 1.000000000000000000 ) ) ;
#17 = FACE_OUTER_BOUND ( 'NONE', #207, .T. ) ;
#18 = CARTESIAN_POINT ( 'NONE',  ( 0.0000000000000000000, 0.0000000000000000000, 0.2913385826771653900 ) ) ;
#19 = CARTESIAN_POINT ( 'NONE',  ( -0.6437007874015749900, 0.0000000000000000000, 0.2913385826771653900 ) ) ;
#20 = CIRCLE ( 'NONE', #153, 0.6791338582677166600 ) ;
#21 = CARTESIAN_POINT ( 'NONE',  ( 0.0000000000000000000, 0.0000000000000000000, 0.2834645669291339100 ) ) ;
#23 = VERTEX_POINT ( 'NONE', #343 ) ;
#22 = AXIS2_PLACEMENT_3D ( 'NONE', #295, #235, #358 ) ;
#24 = CARTESIAN_POINT ( 'NONE',  ( 0.0000000000000000000, 0.0000000000000000000, 0.03149606299212598400 ) ) ;
#25 = ORIENTED_EDGE ( 'NONE', *, *, #103, .F. ) ;
#26 = CARTESIAN_POINT ( 'NONE',  ( 0.0000000000000000000, 0.0000000000000000000, 0.1811023622047244200 ) ) ;
#27 = DIRECTION ( 'NONE',  ( -1.000000000000000000, 0.0000000000000000000, 0.0000000000000000000 ) ) ;
#28 = ADVANCED_FACE ( 'NONE', ( #282 ), #368, .T. ) ;
#29 = CIRCLE ( 'NONE', #113, 0.6791338582677166600 ) ;
#30 =( NAMED_UNIT ( * ) SI_UNIT ( $, .STERADIAN. ) SOLID_ANGLE_UNIT ( ) );
#31 = EDGE_CURVE ( 'NONE', #50, #96, #288, .T. ) ;
#32 = ADVANCED_FACE ( 'NONE', ( #361, #222 ), #89, .F. ) ;
#33 = FACE_OUTER_BOUND ( 'NONE', #104, .T. ) ;
#34 = ADVANCED_FACE ( 'NONE', ( #112 ), #95, .F. ) ;
#35 = ADVANCED_BREP_SHAPE_REPRESENTATION ( 'RL-103', ( #2, #64 ), #323 ) ;
#36 = ORIENTED_EDGE ( 'NONE', *, *, #340, .T. ) ;
#37 = AXIS2_PLACEMENT_3D ( 'NONE', #26, #143, #200 ) ;
#38 = VECTOR ( 'NONE', #147, 39.37007874015748100 ) ;
#39 = DIRECTION ( 'NONE',  ( -0.0000000000000000000, -0.0000000000000000000, -1.000000000000000000 ) ) ;
#40 = VERTEX_POINT ( 'NONE', #168 ) ;
#41 = CARTESIAN_POINT ( 'NONE',  ( 0.0000000000000000000, 0.0000000000000000000, 0.2834645669291339100 ) ) ;
#42 = EDGE_CURVE ( 'NONE', #234, #165, #238, .T. ) ;
#43 = EDGE_LOOP ( 'NONE', ( #157, #318, #105, #240 ) ) ;
#44 =( CONVERSION_BASED_UNIT ( 'INCH', #298 ) LENGTH_UNIT ( ) NAMED_UNIT ( #146 ) );
#45 = CARTESIAN_POINT ( 'NONE',  ( 0.0000000000000000000, 0.0000000000000000000, 0.2913385826771653900 ) ) ;
#46 = DIRECTION ( 'NONE',  ( -1.000000000000000000, 0.0000000000000000000, 0.0000000000000000000 ) ) ;
#47 = EDGE_CURVE ( 'NONE', #378, #247, #348, .T. ) ;
#48 = CARTESIAN_POINT ( 'NONE',  ( 0.0000000000000000000, 0.0000000000000000000, 0.02755905511811023600 ) ) ;
#49 = DIRECTION ( 'NONE',  ( -0.0000000000000000000, -0.0000000000000000000, -1.000000000000000000 ) ) ;
#50 = VERTEX_POINT ( 'NONE', #19 ) ;
#52 = CIRCLE ( 'NONE', #255, 0.6594488188976378500 ) ;
#51 = AXIS2_PLACEMENT_3D ( 'NONE', #305, #224, #342 ) ;
#53 = ORIENTED_EDGE ( 'NONE', *, *, #331, .T. ) ;
#54 = VERTEX_POINT ( 'NONE', #314 ) ;
#56 = EDGE_LOOP ( 'NONE', ( #25, #181 ) ) ;
#55 = EDGE_CURVE ( 'NONE', #165, #234, #150, .T. ) ;
#57 = DIRECTION ( 'NONE',  ( 0.0000000000000000000, 0.0000000000000000000, 1.000000000000000000 ) ) ;
#58 = ADVANCED_FACE ( 'NONE', ( #11 ), #389, .F. ) ;
#59 = CARTESIAN_POINT ( 'NONE',  ( -0.5905511811023621500, 0.0000000000000000000, 0.2913385826771653900 ) ) ;
#60 = PRODUCT_DEFINITION_FORMATION_WITH_SPECIFIED_SOURCE ( 'ANY', '', #211, .NOT_KNOWN. ) ;
#61 = SURFACE_STYLE_FILL_AREA ( #304 ) ;
#62 = STYLED_ITEM ( 'NONE', ( #109 ), #35 ) ;
#63 = CIRCLE ( 'NONE', #183, 0.5905511811023621500 ) ;
#64 = AXIS2_PLACEMENT_3D ( 'NONE', #281, #275, #223 ) ;
#65 = CIRCLE ( 'NONE', #167, 0.6437007874015749900 ) ;
#66 = CARTESIAN_POINT ( 'NONE',  ( -0.6791338582677166600, 8.316991057201514200E-017, 0.03149606299212599800 ) ) ;
#67 = EDGE_CURVE ( 'NONE', #128, #50, #161, .T. ) ;
#68 = EDGE_LOOP ( 'NONE', ( #381, #297 ) ) ;
#69 =( LENGTH_UNIT ( ) NAMED_UNIT ( * ) SI_UNIT ( $, .METRE. ) );
#70 = FACE_BOUND ( 'NONE', #68, .T. ) ;
#71 = SURFACE_STYLE_USAGE ( .BOTH. , #75 ) ;
#72 = PRODUCT_RELATED_PRODUCT_CATEGORY ( 'part', '', ( #211 ) ) ;
#73 =( NAMED_UNIT ( * ) PLANE_ANGLE_UNIT ( ) SI_UNIT ( $, .RADIAN. ) );
#74 = ORIENTED_EDGE ( 'NONE', *, *, #349, .F. ) ;
#75 = SURFACE_SIDE_STYLE ('',( #141 ) ) ;
#76 = CARTESIAN_POINT ( 'NONE',  ( 0.5905511811023621500, 7.232166136696967600E-017, 0.2834645669291339100 ) ) ;
#77 = AXIS2_PLACEMENT_3D ( 'NONE', #108, #309, #351 ) ;
#78 = CARTESIAN_POINT ( 'NONE',  ( -0.6791338582677166600, 8.316991057201514200E-017, 0.2913385826771653900 ) ) ;
#79 = ORIENTED_EDGE ( 'NONE', *, *, #340, .F. ) ;
#80 = DIRECTION ( 'NONE',  ( -1.000000000000000000, 0.0000000000000000000, 0.0000000000000000000 ) ) ;
#81 = VERTEX_POINT ( 'NONE', #289 ) ;
#82 = DIRECTION ( 'NONE',  ( 1.000000000000000000, 0.0000000000000000000, 0.0000000000000000000 ) ) ;
#83 = AXIS2_PLACEMENT_3D ( 'NONE', #18, #375, #98 ) ;
#84 = ORIENTED_EDGE ( 'NONE', *, *, #325, .T. ) ;
#85 = DIRECTION ( 'NONE',  ( -0.0000000000000000000, -0.0000000000000000000, -1.000000000000000000 ) ) ;
#86 = EDGE_CURVE ( 'NONE', #249, #116, #374, .T. ) ;
#87 = CARTESIAN_POINT ( 'NONE',  ( 0.0000000000000000000, 0.0000000000000000000, 0.03149606299212598400 ) ) ;
#88 = CIRCLE ( 'NONE', #245, 0.6594488188976378500 ) ;
#89 = PLANE ( 'NONE',  #162 ) ;
#90 = CARTESIAN_POINT ( 'NONE',  ( 0.0000000000000000000, 0.0000000000000000000, 0.1771653543307086800 ) ) ;
#91 = ORIENTED_EDGE ( 'NONE', *, *, #86, .T. ) ;
#92 = CARTESIAN_POINT ( 'NONE',  ( 0.5905511811023621500, 7.232166136696967600E-017, 0.2834645669291339100 ) ) ;
#93 = LINE ( 'NONE', #179, #252 ) ;
#94 = SURFACE_SIDE_STYLE ('',( #61 ) ) ;
#95 = CYLINDRICAL_SURFACE ( 'NONE', #315, 0.5905511811023621500 ) ;
#96 = VERTEX_POINT ( 'NONE', #350 ) ;
#97 = AXIS2_PLACEMENT_3D ( 'NONE', #317, #319, #205 ) ;
#98 = DIRECTION ( 'NONE',  ( 1.000000000000000000, 0.0000000000000000000, 0.0000000000000000000 ) ) ;
#99 = DIRECTION ( 'NONE',  ( 0.0000000000000000000, 0.0000000000000000000, -1.000000000000000000 ) ) ;
#100 = FILL_AREA_STYLE_COLOUR ( '', #303 ) ;
#101 = APPLICATION_PROTOCOL_DEFINITION ( 'draft international standard', 'automotive_design', 1998, #220 ) ;
#102 = ORIENTED_EDGE ( 'NONE', *, *, #31, .F. ) ;
#103 = EDGE_CURVE ( 'NONE', #96, #125, #65, .T. ) ;
#104 = EDGE_LOOP ( 'NONE', ( #36, #84 ) ) ;
#105 = ORIENTED_EDGE ( 'NONE', *, *, #155, .T. ) ;
#106 =( GEOMETRIC_REPRESENTATION_CONTEXT ( 3 ) GLOBAL_UNCERTAINTY_ASSIGNED_CONTEXT ( ( #287 ) ) GLOBAL_UNIT_ASSIGNED_CONTEXT ( ( #13, #188, #276 ) ) REPRESENTATION_CONTEXT ( 'NONE', 'WORKASPACE' ) );
#107 = EDGE_LOOP ( 'NONE', ( #258, #123 ) ) ;
#108 = CARTESIAN_POINT ( 'NONE',  ( 0.0000000000000000000, 0.0000000000000000000, 0.2913385826771653900 ) ) ;
#109 = PRESENTATION_STYLE_ASSIGNMENT (( #71 ) ) ;
#110 = PRODUCT_DEFINITION_SHAPE ( 'NONE', 'NONE',  #269 ) ;
#111 = AXIS2_PLACEMENT_3D ( 'NONE', #199, #228, #230 ) ;
#112 = FACE_OUTER_BOUND ( 'NONE', #371, .T. ) ;
#113 = AXIS2_PLACEMENT_3D ( 'NONE', #251, #333, #7 ) ;
#114 = CIRCLE ( 'NONE', #134, 0.6437007874015749900 ) ;
#115 = CARTESIAN_POINT ( 'NONE',  ( 0.0000000000000000000, 0.0000000000000000000, 0.1811023622047244200 ) ) ;
#116 = VERTEX_POINT ( 'NONE', #169 ) ;
#117 = EDGE_CURVE ( 'NONE', #247, #378, #88, .T. ) ;
#118 = ORIENTED_EDGE ( 'NONE', *, *, #382, .F. ) ;
#119 = PLANE ( 'NONE',  #97 ) ;
#120 = ADVANCED_FACE ( 'NONE', ( #204 ), #292, .T. ) ;
#121 = CARTESIAN_POINT ( 'NONE',  ( 0.0000000000000000000, 0.0000000000000000000, 0.1771653543307086800 ) ) ;
#122 = ADVANCED_FACE ( 'NONE', ( #33 ), #119, .F. ) ;
#123 = ORIENTED_EDGE ( 'NONE', *, *, #376, .F. ) ;
#124 = AXIS2_PLACEMENT_3D ( 'NONE', #45, #250, #271 ) ;
#125 = VERTEX_POINT ( 'NONE', #197 ) ;
#126 = PRESENTATION_STYLE_ASSIGNMENT (( #299 ) ) ;
#127 = VECTOR ( 'NONE', #164, 39.37007874015748100 ) ;
#128 = VERTEX_POINT ( 'NONE', #310 ) ;
#130 = ORIENTED_EDGE ( 'NONE', *, *, #239, .F. ) ;
#129 = AXIS2_PLACEMENT_3D ( 'NONE', #24, #347, #145 ) ;
#131 = PRODUCT_CONTEXT ( 'NONE', #339, 'mechanical' ) ;
#132 = LENGTH_MEASURE_WITH_UNIT ( LENGTH_MEASURE( 0.02539999999999999900 ), #69 );
#133 = EDGE_LOOP ( 'NONE', ( #264, #353, #229, #130 ) ) ;
#134 = AXIS2_PLACEMENT_3D ( 'NONE', #383, #263, #173 ) ;
#135 = DIRECTION ( 'NONE',  ( 0.0000000000000000000, 0.0000000000000000000, 1.000000000000000000 ) ) ;
#136 = DIRECTION ( 'NONE',  ( 1.000000000000000000, 0.0000000000000000000, 0.0000000000000000000 ) ) ;
#137 = CARTESIAN_POINT ( 'NONE',  ( 0.0000000000000000000, 0.0000000000000000000, 0.0000000000000000000 ) ) ;
#138 = DIRECTION ( 'NONE',  ( -1.000000000000000000, 0.0000000000000000000, 0.0000000000000000000 ) ) ;
#139 = CARTESIAN_POINT ( 'NONE',  ( -0.6437007874015749900, 0.0000000000000000000, 0.1771653543307086800 ) ) ;
#140 = DIRECTION ( 'NONE',  ( 0.0000000000000000000, 0.0000000000000000000, 1.000000000000000000 ) ) ;
#141 = SURFACE_STYLE_FILL_AREA ( #279 ) ;
#142 = AXIS2_PLACEMENT_3D ( 'NONE', #286, #140, #138 ) ;
#143 = DIRECTION ( 'NONE',  ( -0.0000000000000000000, -0.0000000000000000000, -1.000000000000000000 ) ) ;
#144 = ORIENTED_EDGE ( 'NONE', *, *, #349, .T. ) ;
#145 = DIRECTION ( 'NONE',  ( 1.000000000000000000, 0.0000000000000000000, 0.0000000000000000000 ) ) ;
#146 = DIMENSIONAL_EXPONENTS ( 1.000000000000000000, 0.0000000000000000000, 0.0000000000000000000, 0.0000000000000000000, 0.0000000000000000000, 0.0000000000000000000, 0.0000000000000000000 ) ;
#147 = DIRECTION ( 'NONE',  ( -0.0000000000000000000, -0.0000000000000000000, -1.000000000000000000 ) ) ;
#148 = CARTESIAN_POINT ( 'NONE',  ( -0.6594488188976378500, 8.075918852644948100E-017, 0.02755905511811023600 ) ) ;
#149 = DIRECTION ( 'NONE',  ( -0.0000000000000000000, -0.0000000000000000000, -1.000000000000000000 ) ) ;
#150 = CIRCLE ( 'NONE', #37, 0.6791338582677166600 ) ;
#151 = UNCERTAINTY_MEASURE_WITH_UNIT (LENGTH_MEASURE( 1.000000000000000100E-005 ), #152, 'distance_accuracy_value', 'NONE');
#152 =( CONVERSION_BASED_UNIT ( 'INCH', #313 ) LENGTH_UNIT ( ) NAMED_UNIT ( #324 ) );
#153 = AXIS2_PLACEMENT_3D ( 'NONE', #367, #193, #214 ) ;
#154 = VECTOR ( 'NONE', #262, 39.37007874015748100 ) ;
#155 = EDGE_CURVE ( 'NONE', #81, #165, #301, .T. ) ;
#156 = CARTESIAN_POINT ( 'NONE',  ( -0.5905511811023621500, 0.0000000000000000000, 0.2834645669291339100 ) ) ;
#157 = ORIENTED_EDGE ( 'NONE', *, *, #308, .F. ) ;
#158 = CARTESIAN_POINT ( 'NONE',  ( 0.6594488188976378500, 0.0000000000000000000, 0.03149606299212598400 ) ) ;
#159 = CARTESIAN_POINT ( 'NONE',  ( 0.0000000000000000000, 0.0000000000000000000, 0.02755905511811023600 ) ) ;
#160 = CIRCLE ( 'NONE', #189, 0.5905511811023621500 ) ;
#162 = AXIS2_PLACEMENT_3D ( 'NONE', #115, #380, #316 ) ;
#161 = CIRCLE ( 'NONE', #77, 0.6437007874015749900 ) ;
#163 = ORIENTED_EDGE ( 'NONE', *, *, #55, .F. ) ;
#164 = DIRECTION ( 'NONE',  ( 0.0000000000000000000, 0.0000000000000000000, 1.000000000000000000 ) ) ;
#165 = VERTEX_POINT ( 'NONE', #233 ) ;
#166 = FACE_BOUND ( 'NONE', #107, .T. ) ;
#167 = AXIS2_PLACEMENT_3D ( 'NONE', #346, #379, #226 ) ;
#168 = CARTESIAN_POINT ( 'NONE',  ( -0.6594488188976378500, 8.075918852644948100E-017, 0.0000000000000000000 ) ) ;
#169 = CARTESIAN_POINT ( 'NONE',  ( 0.5905511811023621500, 7.232166136696967600E-017, 0.2913385826771653900 ) ) ;
#170 = DIRECTION ( 'NONE',  ( -1.000000000000000000, 0.0000000000000000000, 0.0000000000000000000 ) ) ;
#171 = MECHANICAL_DESIGN_GEOMETRIC_PRESENTATION_REPRESENTATION (  '', ( #62 ), #106 ) ;
#172 = ORIENTED_EDGE ( 'NONE', *, *, #155, .F. ) ;
#173 = DIRECTION ( 'NONE',  ( -1.000000000000000000, 0.0000000000000000000, 0.0000000000000000000 ) ) ;
#174 = ORIENTED_EDGE ( 'NONE', *, *, #67, .F. ) ;
#175 = ADVANCED_FACE ( 'NONE', ( #182 ), #261, .T. ) ;
#176 = CARTESIAN_POINT ( 'NONE',  ( 0.0000000000000000000, 0.0000000000000000000, 0.2913385826771653900 ) ) ;
#177 = ORIENTED_EDGE ( 'NONE', *, *, #180, .F. ) ;
#178 = ADVANCED_FACE ( 'NONE', ( #307 ), #354, .T. ) ;
#179 = CARTESIAN_POINT ( 'NONE',  ( 0.6594488188976378500, 0.0000000000000000000, 0.02755905511811023600 ) ) ;
#180 = EDGE_CURVE ( 'NONE', #50, #128, #191, .T. ) ;
#181 = ORIENTED_EDGE ( 'NONE', *, *, #221, .F. ) ;
#182 = FACE_OUTER_BOUND ( 'NONE', #322, .T. ) ;
#183 = AXIS2_PLACEMENT_3D ( 'NONE', #41, #15, #80 ) ;
#184 = VECTOR ( 'NONE', #366, 39.37007874015748100 ) ;
#185 = DIRECTION ( 'NONE',  ( -0.0000000000000000000, -0.0000000000000000000, -1.000000000000000000 ) ) ;
#186 = CARTESIAN_POINT ( 'NONE',  ( 0.0000000000000000000, 0.0000000000000000000, 0.2834645669291339100 ) ) ;
#187 = ORIENTED_EDGE ( 'NONE', *, *, #31, .T. ) ;
#188 =( NAMED_UNIT ( * ) PLANE_ANGLE_UNIT ( ) SI_UNIT ( $, .RADIAN. ) );
#189 = AXIS2_PLACEMENT_3D ( 'NONE', #186, #194, #46 ) ;
#190 =( NAMED_UNIT ( * ) SI_UNIT ( $, .STERADIAN. ) SOLID_ANGLE_UNIT ( ) );
#192 = AXIS2_PLACEMENT_3D ( 'NONE', #90, #386, #27 ) ;
#191 = CIRCLE ( 'NONE', #227, 0.6437007874015749900 ) ;
#193 = DIRECTION ( 'NONE',  ( -0.0000000000000000000, -0.0000000000000000000, -1.000000000000000000 ) ) ;
#194 = DIRECTION ( 'NONE',  ( 0.0000000000000000000, 0.0000000000000000000, 1.000000000000000000 ) ) ;
#195 = FACE_OUTER_BOUND ( 'NONE', #266, .T. ) ;
#196 = ORIENTED_EDGE ( 'NONE', *, *, #221, .T. ) ;
#197 = CARTESIAN_POINT ( 'NONE',  ( 0.6437007874015749900, 7.883061088999697000E-017, 0.1811023622047244200 ) ) ;
#198 = ORIENTED_EDGE ( 'NONE', *, *, #4, .T. ) ;
#199 = CARTESIAN_POINT ( 'NONE',  ( 0.0000000000000000000, 0.0000000000000000000, 0.1811023622047244200 ) ) ;
#200 = DIRECTION ( 'NONE',  ( 1.000000000000000000, 0.0000000000000000000, 0.0000000000000000000 ) ) ;
#201 = CYLINDRICAL_SURFACE ( 'NONE', #22, 0.6791338582677166600 ) ;
#202 = EDGE_CURVE ( 'NONE', #128, #125, #341, .T. ) ;
#203 = DIRECTION ( 'NONE',  ( -0.0000000000000000000, -0.0000000000000000000, -1.000000000000000000 ) ) ;
#204 = FACE_OUTER_BOUND ( 'NONE', #216, .T. ) ;
#205 = DIRECTION ( 'NONE',  ( -1.000000000000000000, 0.0000000000000000000, -0.0000000000000000000 ) ) ;
#206 = ADVANCED_FACE ( 'NONE', ( #17 ), #201, .T. ) ;
#207 = EDGE_LOOP ( 'NONE', ( #118, #256, #336, #172 ) ) ;
#208 = CARTESIAN_POINT ( 'NONE',  ( -0.6791338582677166600, 8.316991057201514200E-017, 0.1811023622047244200 ) ) ;
#209 = ORIENTED_EDGE ( 'NONE', *, *, #382, .T. ) ;
#210 = VERTEX_POINT ( 'NONE', #92 ) ;
#211 = PRODUCT ( 'RL-103', 'RL-103', '', ( #131 ) ) ;
#212 = CIRCLE ( 'NONE', #124, 0.5905511811023621500 ) ;
#213 = AXIS2_PLACEMENT_3D ( 'NONE', #121, #149, #384 ) ;
#214 = DIRECTION ( 'NONE',  ( 1.000000000000000000, 0.0000000000000000000, 0.0000000000000000000 ) ) ;
#215 = PLANE ( 'NONE',  #10 ) ;
#216 = EDGE_LOOP ( 'NONE', ( #272, #74, #278, #296 ) ) ;
#217 = EDGE_LOOP ( 'NONE', ( #91, #198, #79, #300 ) ) ;
#218 = PRESENTATION_LAYER_ASSIGNMENT (  '', '', ( #62 ) ) ;
#219 = COLOUR_RGB ( '',0.8000000000000000400, 0.8000000000000000400, 0.8000000000000000400 ) ;
#220 = APPLICATION_CONTEXT ( 'automotive_design' ) ;
#221 = EDGE_CURVE ( 'NONE', #125, #96, #114, .T. ) ;
#222 = FACE_BOUND ( 'NONE', #56, .T. ) ;
#223 = DIRECTION ( 'NONE',  ( 1.000000000000000000, 0.0000000000000000000, 0.0000000000000000000 ) ) ;
#224 = DIRECTION ( 'NONE',  ( 0.0000000000000000000, 0.0000000000000000000, -1.000000000000000000 ) ) ;
#225 = CARTESIAN_POINT ( 'NONE',  ( -0.6594488188976378500, 8.075918852644948100E-017, 0.03149606299212598400 ) ) ;
#226 = DIRECTION ( 'NONE',  ( -1.000000000000000000, 0.0000000000000000000, 0.0000000000000000000 ) ) ;
#227 = AXIS2_PLACEMENT_3D ( 'NONE', #176, #321, #356 ) ;
#228 = DIRECTION ( 'NONE',  ( -0.0000000000000000000, -0.0000000000000000000, -1.000000000000000000 ) ) ;
#229 = ORIENTED_EDGE ( 'NONE', *, *, #117, .T. ) ;
#230 = DIRECTION ( 'NONE',  ( 1.000000000000000000, 0.0000000000000000000, 0.0000000000000000000 ) ) ;
#231 = DIRECTION ( 'NONE',  ( -0.0000000000000000000, -0.0000000000000000000, -1.000000000000000000 ) ) ;
#232 = AXIS2_PLACEMENT_3D ( 'NONE', #21, #231, #260 ) ;
#233 = CARTESIAN_POINT ( 'NONE',  ( 0.6791338582677166600, 0.0000000000000000000, 0.1811023622047244200 ) ) ;
#234 = VERTEX_POINT ( 'NONE', #208 ) ;
#235 = DIRECTION ( 'NONE',  ( 0.0000000000000000000, 0.0000000000000000000, 1.000000000000000000 ) ) ;
#236 = ORIENTED_EDGE ( 'NONE', *, *, #67, .T. ) ;
#237 = LINE ( 'NONE', #148, #127 ) ;
#238 = CIRCLE ( 'NONE', #111, 0.6791338582677166600 ) ;
#239 = EDGE_CURVE ( 'NONE', #23, #378, #93, .T. ) ;
#240 = ORIENTED_EDGE ( 'NONE', *, *, #55, .T. ) ;
#241 =( NAMED_UNIT ( * ) PLANE_ANGLE_UNIT ( ) SI_UNIT ( $, .RADIAN. ) );
#242 = ORIENTED_EDGE ( 'NONE', *, *, #42, .F. ) ;
#243 = DIRECTION ( 'NONE',  ( 1.000000000000000000, 0.0000000000000000000, 0.0000000000000000000 ) ) ;
#244 = FACE_OUTER_BOUND ( 'NONE', #43, .T. ) ;
#245 = AXIS2_PLACEMENT_3D ( 'NONE', #87, #85, #291 ) ;
#246 = VECTOR ( 'NONE', #49, 39.37007874015748100 ) ;
#247 = VERTEX_POINT ( 'NONE', #225 ) ;
#248 = FILL_AREA_STYLE_COLOUR ( '', #219 ) ;
#249 = VERTEX_POINT ( 'NONE', #59 ) ;
#250 = DIRECTION ( 'NONE',  ( 0.0000000000000000000, 0.0000000000000000000, 1.000000000000000000 ) ) ;
#251 = CARTESIAN_POINT ( 'NONE',  ( 0.0000000000000000000, 0.0000000000000000000, 0.03149606299212599800 ) ) ;
#252 = VECTOR ( 'NONE', #57, 39.37007874015748100 ) ;
#253 = DIRECTION ( 'NONE',  ( 0.0000000000000000000, 0.0000000000000000000, 1.000000000000000000 ) ) ;
#254 = CARTESIAN_POINT ( 'NONE',  ( 0.0000000000000000000, 0.0000000000000000000, 0.2834645669291339100 ) ) ;
#255 = AXIS2_PLACEMENT_3D ( 'NONE', #137, #185, #332 ) ;
#256 = ORIENTED_EDGE ( 'NONE', *, *, #308, .T. ) ;
#257 = CARTESIAN_POINT ( 'NONE',  ( 0.6791338582677166600, 0.0000000000000000000, 0.2913385826771653900 ) ) ;
#258 = ORIENTED_EDGE ( 'NONE', *, *, #86, .F. ) ;
#259 = AXIS2_PLACEMENT_3D ( 'NONE', #159, #16, #136 ) ;
#260 = DIRECTION ( 'NONE',  ( -1.000000000000000000, 0.0000000000000000000, 0.0000000000000000000 ) ) ;
#261 = CYLINDRICAL_SURFACE ( 'NONE', #192, 0.6437007874015749900 ) ;
#262 = DIRECTION ( 'NONE',  ( 0.0000000000000000000, 0.0000000000000000000, 1.000000000000000000 ) ) ;
#263 = DIRECTION ( 'NONE',  ( 0.0000000000000000000, 0.0000000000000000000, 1.000000000000000000 ) ) ;
#264 = ORIENTED_EDGE ( 'NONE', *, *, #364, .F. ) ;
#266 = EDGE_LOOP ( 'NONE', ( #177, #174 ) ) ;
#265 = AXIS2_PLACEMENT_3D ( 'NONE', #48, #253, #82 ) ;
#267 = FACE_OUTER_BOUND ( 'NONE', #385, .T. ) ;
#268 = ORIENTED_EDGE ( 'NONE', *, *, #103, .T. ) ;
#269 = PRODUCT_DEFINITION ( 'UNKNOWN', '', #60, #273 ) ;
#270 = LINE ( 'NONE', #156, #184 ) ;
#271 = DIRECTION ( 'NONE',  ( -1.000000000000000000, 0.0000000000000000000, 0.0000000000000000000 ) ) ;
#272 = ORIENTED_EDGE ( 'NONE', *, *, #290, .F. ) ;
#273 = PRODUCT_DEFINITION_CONTEXT ( 'detailed design', #220, 'design' ) ;
#274 = EDGE_LOOP ( 'NONE', ( #277, #330, #196, #102 ) ) ;
#275 = DIRECTION ( 'NONE',  ( 0.0000000000000000000, 0.0000000000000000000, 1.000000000000000000 ) ) ;
#276 =( NAMED_UNIT ( * ) SI_UNIT ( $, .STERADIAN. ) SOLID_ANGLE_UNIT ( ) );
#277 = ORIENTED_EDGE ( 'NONE', *, *, #180, .T. ) ;
#278 = ORIENTED_EDGE ( 'NONE', *, *, #239, .T. ) ;
#279 = FILL_AREA_STYLE ('',( #248 ) ) ;
#280 = UNCERTAINTY_MEASURE_WITH_UNIT (LENGTH_MEASURE( 1.000000000000000100E-005 ), #44, 'distance_accuracy_value', 'NONE');
#281 = CARTESIAN_POINT ( 'NONE',  ( 0.0000000000000000000, 0.0000000000000000000, 0.0000000000000000000 ) ) ;
#282 = FACE_OUTER_BOUND ( 'NONE', #133, .T. ) ;
#283 = CARTESIAN_POINT ( 'NONE',  ( 0.0000000000000000000, 0.0000000000000000000, 0.0000000000000000000 ) ) ;
#284 = DIRECTION ( 'NONE',  ( -1.000000000000000000, 0.0000000000000000000, -0.0000000000000000000 ) ) ;
#285 = ORIENTED_EDGE ( 'NONE', *, *, #359, .T. ) ;
#286 = CARTESIAN_POINT ( 'NONE',  ( 0.0000000000000000000, 0.0000000000000000000, 0.2913385826771653900 ) ) ;
#287 = UNCERTAINTY_MEASURE_WITH_UNIT (LENGTH_MEASURE( 1.000000000000000100E-005 ), #13, 'distance_accuracy_value', 'NONE');
#288 = LINE ( 'NONE', #139, #246 ) ;
#289 = CARTESIAN_POINT ( 'NONE',  ( 0.6791338582677166600, 0.0000000000000000000, 0.03149606299212599800 ) ) ;
#290 = EDGE_CURVE ( 'NONE', #40, #247, #237, .T. ) ;
#291 = DIRECTION ( 'NONE',  ( 1.000000000000000000, 0.0000000000000000000, 0.0000000000000000000 ) ) ;
#292 = CYLINDRICAL_SURFACE ( 'NONE', #265, 0.6594488188976378500 ) ;
#293 = CARTESIAN_POINT ( 'NONE',  ( 0.6437007874015749900, 7.883061088999697000E-017, 0.1771653543307086800 ) ) ;
#294 = CIRCLE ( 'NONE', #1, 0.6594488188976378500 ) ;
#295 = CARTESIAN_POINT ( 'NONE',  ( 0.0000000000000000000, 0.0000000000000000000, 0.2913385826771653900 ) ) ;
#296 = ORIENTED_EDGE ( 'NONE', *, *, #47, .T. ) ;
#297 = ORIENTED_EDGE ( 'NONE', *, *, #117, .F. ) ;
#298 = LENGTH_MEASURE_WITH_UNIT ( LENGTH_MEASURE( 0.02539999999999999900 ), #373 );
#299 = SURFACE_STYLE_USAGE ( .BOTH. , #94 ) ;
#300 = ORIENTED_EDGE ( 'NONE', *, *, #359, .F. ) ;
#301 = LINE ( 'NONE', #257, #154 ) ;
#302 = CARTESIAN_POINT ( 'NONE',  ( 0.0000000000000000000, 0.0000000000000000000, 0.0000000000000000000 ) ) ;
#303 = COLOUR_RGB ( '',0.8000000000000000400, 0.8000000000000000400, 0.8000000000000000400 ) ;
#304 = FILL_AREA_STYLE ('',( #100 ) ) ;
#305 = CARTESIAN_POINT ( 'NONE',  ( 0.0000000000000000000, 0.0000000000000000000, 0.03149606299212598400 ) ) ;
#306 = CLOSED_SHELL ( 'NONE', ( #28, #206, #178, #58, #387, #120, #357, #320, #32, #175, #363, #34, #122 ) ) ;
#307 = FACE_OUTER_BOUND ( 'NONE', #274, .T. ) ;
#308 = EDGE_CURVE ( 'NONE', #362, #234, #8, .T. ) ;
#309 = DIRECTION ( 'NONE',  ( -0.0000000000000000000, -0.0000000000000000000, -1.000000000000000000 ) ) ;
#310 = CARTESIAN_POINT ( 'NONE',  ( 0.6437007874015749900, 7.883061088999697000E-017, 0.2913385826771653900 ) ) ;
#311 = FACE_OUTER_BOUND ( 'NONE', #328, .T. ) ;
#312 = AXIS2_PLACEMENT_3D ( 'NONE', #283, #355, #388 ) ;
#313 = LENGTH_MEASURE_WITH_UNIT ( LENGTH_MEASURE( 0.02539999999999999900 ), #327 );
#314 = CARTESIAN_POINT ( 'NONE',  ( -0.5905511811023621500, 0.0000000000000000000, 0.2834645669291339100 ) ) ;
#315 = AXIS2_PLACEMENT_3D ( 'NONE', #254, #203, #170 ) ;
#316 = DIRECTION ( 'NONE',  ( -1.000000000000000000, 0.0000000000000000000, -0.0000000000000000000 ) ) ;
#317 = CARTESIAN_POINT ( 'NONE',  ( 0.0000000000000000000, 0.0000000000000000000, 0.2834645669291339100 ) ) ;
#318 = ORIENTED_EDGE ( 'NONE', *, *, #331, .F. ) ;
#319 = DIRECTION ( 'NONE',  ( 0.0000000000000000000, 0.0000000000000000000, -1.000000000000000000 ) ) ;
#320 = ADVANCED_FACE ( 'NONE', ( #244 ), #335, .T. ) ;
#321 = DIRECTION ( 'NONE',  ( -0.0000000000000000000, -0.0000000000000000000, -1.000000000000000000 ) ) ;
#322 = EDGE_LOOP ( 'NONE', ( #345, #236, #187, #268 ) ) ;
#323 =( GEOMETRIC_REPRESENTATION_CONTEXT ( 3 ) GLOBAL_UNCERTAINTY_ASSIGNED_CONTEXT ( ( #280 ) ) GLOBAL_UNIT_ASSIGNED_CONTEXT ( ( #44, #73, #190 ) ) REPRESENTATION_CONTEXT ( 'NONE', 'WORKASPACE' ) );
#324 = DIMENSIONAL_EXPONENTS ( 1.000000000000000000, 0.0000000000000000000, 0.0000000000000000000, 0.0000000000000000000, 0.0000000000000000000, 0.0000000000000000000, 0.0000000000000000000 ) ;
#325 = EDGE_CURVE ( 'NONE', #210, #54, #63, .T. ) ;
#326 = VECTOR ( 'NONE', #372, 39.37007874015748100 ) ;
#327 =( LENGTH_UNIT ( ) NAMED_UNIT ( * ) SI_UNIT ( $, .METRE. ) );
#328 = EDGE_LOOP ( 'NONE', ( #144, #3 ) ) ;
#329 = DIMENSIONAL_EXPONENTS ( 1.000000000000000000, 0.0000000000000000000, 0.0000000000000000000, 0.0000000000000000000, 0.0000000000000000000, 0.0000000000000000000, 0.0000000000000000000 ) ;
#330 = ORIENTED_EDGE ( 'NONE', *, *, #202, .T. ) ;
#331 = EDGE_CURVE ( 'NONE', #81, #362, #20, .T. ) ;
#332 = DIRECTION ( 'NONE',  ( 1.000000000000000000, 0.0000000000000000000, 0.0000000000000000000 ) ) ;
#333 = DIRECTION ( 'NONE',  ( -0.0000000000000000000, -0.0000000000000000000, -1.000000000000000000 ) ) ;
#334 = PRESENTATION_LAYER_ASSIGNMENT (  '', '', ( #14 ) ) ;
#335 = CYLINDRICAL_SURFACE ( 'NONE', #83, 0.6791338582677166600 ) ;
#336 = ORIENTED_EDGE ( 'NONE', *, *, #42, .T. ) ;
#337 = ORIENTED_EDGE ( 'NONE', *, *, #325, .F. ) ;
#338 = SHAPE_DEFINITION_REPRESENTATION ( #110, #35 ) ;
#339 = APPLICATION_CONTEXT ( 'automotive_design' ) ;
#340 = EDGE_CURVE ( 'NONE', #54, #210, #160, .T. ) ;
#341 = LINE ( 'NONE', #293, #38 ) ;
#342 = DIRECTION ( 'NONE',  ( -1.000000000000000000, 0.0000000000000000000, -0.0000000000000000000 ) ) ;
#343 = CARTESIAN_POINT ( 'NONE',  ( 0.6594488188976378500, 0.0000000000000000000, 0.0000000000000000000 ) ) ;
#344 = PLANE ( 'NONE',  #51 ) ;
#345 = ORIENTED_EDGE ( 'NONE', *, *, #202, .F. ) ;
#346 = CARTESIAN_POINT ( 'NONE',  ( 0.0000000000000000000, 0.0000000000000000000, 0.1811023622047244200 ) ) ;
#347 = DIRECTION ( 'NONE',  ( -0.0000000000000000000, -0.0000000000000000000, -1.000000000000000000 ) ) ;
#348 = CIRCLE ( 'NONE', #129, 0.6594488188976378500 ) ;
#349 = EDGE_CURVE ( 'NONE', #23, #40, #52, .T. ) ;
#350 = CARTESIAN_POINT ( 'NONE',  ( -0.6437007874015749900, 0.0000000000000000000, 0.1811023622047244200 ) ) ;
#351 = DIRECTION ( 'NONE',  ( -1.000000000000000000, 0.0000000000000000000, 0.0000000000000000000 ) ) ;
#352 = VECTOR ( 'NONE', #135, 39.37007874015748100 ) ;
#353 = ORIENTED_EDGE ( 'NONE', *, *, #290, .T. ) ;
#354 = CYLINDRICAL_SURFACE ( 'NONE', #213, 0.6437007874015749900 ) ;
#355 = DIRECTION ( 'NONE',  ( 0.0000000000000000000, 0.0000000000000000000, -1.000000000000000000 ) ) ;
#356 = DIRECTION ( 'NONE',  ( -1.000000000000000000, 0.0000000000000000000, 0.0000000000000000000 ) ) ;
#357 = ADVANCED_FACE ( 'NONE', ( #70, #267 ), #344, .T. ) ;
#358 = DIRECTION ( 'NONE',  ( 1.000000000000000000, 0.0000000000000000000, 0.0000000000000000000 ) ) ;
#359 = EDGE_CURVE ( 'NONE', #249, #54, #270, .T. ) ;
#360 = ORIENTED_EDGE ( 'NONE', *, *, #4, .F. ) ;
#361 = FACE_OUTER_BOUND ( 'NONE', #12, .T. ) ;
#362 = VERTEX_POINT ( 'NONE', #66 ) ;
#363 = ADVANCED_FACE ( 'NONE', ( #195, #166 ), #215, .F. ) ;
#364 = EDGE_CURVE ( 'NONE', #40, #23, #294, .T. ) ;
#365 = LINE ( 'NONE', #76, #326 ) ;
#366 = DIRECTION ( 'NONE',  ( -0.0000000000000000000, -0.0000000000000000000, -1.000000000000000000 ) ) ;
#367 = CARTESIAN_POINT ( 'NONE',  ( 0.0000000000000000000, 0.0000000000000000000, 0.03149606299212599800 ) ) ;
#368 = CYLINDRICAL_SURFACE ( 'NONE', #259, 0.6594488188976378500 ) ;
#369 = PLANE ( 'NONE',  #312 ) ;
#370 = MECHANICAL_DESIGN_GEOMETRIC_PRESENTATION_REPRESENTATION (  '', ( #14 ), #377 ) ;
#371 = EDGE_LOOP ( 'NONE', ( #360, #6, #285, #337 ) ) ;
#372 = DIRECTION ( 'NONE',  ( -0.0000000000000000000, -0.0000000000000000000, -1.000000000000000000 ) ) ;
#373 =( LENGTH_UNIT ( ) NAMED_UNIT ( * ) SI_UNIT ( $, .METRE. ) );
#374 = CIRCLE ( 'NONE', #142, 0.5905511811023621500 ) ;
#375 = DIRECTION ( 'NONE',  ( 0.0000000000000000000, 0.0000000000000000000, 1.000000000000000000 ) ) ;
#376 = EDGE_CURVE ( 'NONE', #116, #249, #212, .T. ) ;
#378 = VERTEX_POINT ( 'NONE', #158 ) ;
#377 =( GEOMETRIC_REPRESENTATION_CONTEXT ( 3 ) GLOBAL_UNCERTAINTY_ASSIGNED_CONTEXT ( ( #151 ) ) GLOBAL_UNIT_ASSIGNED_CONTEXT ( ( #152, #241, #30 ) ) REPRESENTATION_CONTEXT ( 'NONE', 'WORKASPACE' ) );
#379 = DIRECTION ( 'NONE',  ( 0.0000000000000000000, 0.0000000000000000000, 1.000000000000000000 ) ) ;
#380 = DIRECTION ( 'NONE',  ( 0.0000000000000000000, 0.0000000000000000000, -1.000000000000000000 ) ) ;
#381 = ORIENTED_EDGE ( 'NONE', *, *, #47, .F. ) ;
#382 = EDGE_CURVE ( 'NONE', #362, #81, #29, .T. ) ;
#383 = CARTESIAN_POINT ( 'NONE',  ( 0.0000000000000000000, 0.0000000000000000000, 0.1811023622047244200 ) ) ;
#384 = DIRECTION ( 'NONE',  ( -1.000000000000000000, 0.0000000000000000000, 0.0000000000000000000 ) ) ;
#385 = EDGE_LOOP ( 'NONE', ( #53, #209 ) ) ;
#386 = DIRECTION ( 'NONE',  ( -0.0000000000000000000, -0.0000000000000000000, -1.000000000000000000 ) ) ;
#387 = ADVANCED_FACE ( 'NONE', ( #311 ), #369, .T. ) ;
#388 = DIRECTION ( 'NONE',  ( -1.000000000000000000, 0.0000000000000000000, -0.0000000000000000000 ) ) ;
#389 = CYLINDRICAL_SURFACE ( 'NONE', #232, 0.5905511811023621500 ) ;
ENDSEC;
END-ISO-10303-21;
